>
 >
Gonna Find My Way Thru

Gonna Find My Way Thru Guitar Tabs

James - Gonna Find My Way Thru chords, tabs, tablatures, lyrics

Guitar lessons | Add/correct | Request | Top 50 tabs Artists:  A B C D E F G H I J K L M N O P Q R S T U V W X Y Z 0-9

Gonna Find My Way Thru Guitar Tabs – James

CD, Sheet music, Poster

Do you like Gonna Find My Way Thru? Share with your friends now
Tabs
This song is awesome! hope you enjoy.

Verse 1
     
   C             G
My life as it is has no meaning

Am                      G
where I'm headed or the things I believe in

C                 G
Aching inside but nobody cares

Am                        F
surrounded by emptiness I just cant bare


Pre Chorus

       C                                   G
But if I could change my life then maybe I would

F                     G 
looking back, I don't think I could. 


Chorus

F            C              Am    G               
The good old days were like yesturday

F       C            Am     G
what we had has been thrown away

F       C                Am     G
doesn't matter what they say or do

F       C                Am     C
I don't care, gonna find my way thru 


Verse 2

C                                  G
Hiding in shadows all my life as a ghost

Am                                  G
turning your back on me hurt me the most
C                                    G
I was always there when you needed a friend
Am                                      F
would it be different if I had money to spend


Pre chorus
Chorus


Verse 3

C                     G
my head is messed up, my heart is bleeding
Am                       G
my brain is fried and my body is grieving
C                  G
cant take anymore, I just wanna die
Am                                     F
end all this suffering, corruption and lies

Pre Chorus 
Chorus  (repeat last line)
---------------------------------------------------------------------
Chords

Verse = C G A G / C G A F 

Pre Chorus = C G F G

Chorus = F C Am G / F C Am C 


Verse (Plucked)

      C             G           Am           G
e----0---0----|---3---3----|---0---0----|---3---3----|
B---1--1-1---|--3---3-3---|--1---1-1---|--3---3-3---|
G--0---0---0--|-0---0 --0--|-2---2---2--|-0--0---0--|

      C                G            Am             F
e----0----0----|---3----3-----|---0----0----|----1----1----|
B---1---1--1---|--3---3--3----|--1---1--1---|---1---1--1---|
G--0-- 0----0--|-0---0-----0--|-2---2----2--|--2---2 ---2--|




Chorus (Plucked)

         F             C           Am             G
e --------1----|-------0----|-------0-----|------3-------|
B----------1---|--------1---|---------1---|--------3-----|
G--------------|------------|-------------|--------------|
D ----3--------|----2-------|----2--------|---0----------|
A --3----------|--3---------|--0----------|--------------|
E--------------|------------|-------------|--3-----------|





Comments


Popular James tabs & chords
Aro Kisukhon Ki Robe Bondhu Chords
Dust Motes Chords
Shes A Star 2 Chords
Upside Live Chords
Protect Me Tabs
Baba Ukulele
Crazy Ukulele
Senorita Ukulele
Seven Ukulele
Tarai Tarai Ukulele


Song lyrics



↑ Back to top | Tablatures and chords are parodies/interpretations of the original songs. You may use it for private study, scholarship, research or language learning purposes only
© 2014 AZChords.com Contact us | Privacy policy | DMCA | Add/correct tabs | Request tabs | Top 50 tabs