» » »

James, Control Tabs (ver.1)

Artists:  A B C D E F G H I J K L M N O P Q R S T U V W X Y Z # 

Control Tabs (ver.1)

James Tabs
 Rating:
4.2/5 (5 votes)
Control lessons Tabs too difficult? Try these video lessons and learn fast
                -------------------------------------------------------------------------------
-------------------------------------------------------------------------------

Tuning:1E 2B 3G 4D 5A 6E

Played in distortion

can you please rate it and comment on it if you thinks its good,bad or what have you.

CHORUS X1
e|---------------------------------------------------|
B|---------------------------------------------------|
G|---------------------------------------------------|
D|---------------------------------------------------|
A|5-55-5-9-9--5-55-5-9-9--5-55-5-9-9--5-55-5---------|
E|3-33-3-7-7--3-33-3-7-7--3-33-3-7-7--3-33-3---------|

CHORUS 2 X1
e|----------------------------------------------------|
B|----------------------------------------------------|
G|----------------------------------------------------|
D|5-55-5------5-55-5------5-55-5------5-55-5----------|
A|5-55-5-9-9--5-55-5-9-9--5-55-5-9-9--5-55-5-9-9------|
E|5-55-5-7-7--5-55-5-7-7--5-55-5-7-7--5-55-5-7-7------|

VERSE X8
e|--------------------------------------------------------------------------|
B|--------------------------------------------------------------------------|
G|-7-9-8b-------------------------------------------------------------------|
D|--------------------------------------------------------------------------|
A|--------------------------------------------------------------------------|
E|--------------------------------------------------------------------------|

PRE CHORUS X4
e|--------------------------------------------------------------------------|
B|--------------------------------------------------------------------------|
G|--------------------------------------------------------------------------|
D|--------------5555--------------------------------------------------------|
A|--5555--9999--5555--------------------------------------------------------|
E|--3333--7777--5555--------------------------------------------------------|

CHORUS 1 X1
CHORUS 2 X1
CHORUS 1 X1
CHORUS 2 X1

VERSE X8
e|--------------------------------------------------------------------------|
B|--3-5-4b------------------------------------------------------------------|
G|--------------------------------------------------------------------------|
D|--------------------------------------------------------------------------|
A|--------------------------------------------------------------------------|
E|--------------------------------------------------------------------------|

PRE CHORUS X4

CHORUS 1 X1
CHORUS 2 X1
CHORUS 1 X1
CHORUS 2 X1

SOLO
e|--------------------------------------------------------------------------|
B|--------------------------------------------------------------------------|
G|----12-10-------10-12-----99\5-55-----------------------------------------|
D|--10-----12---12-----10----------55-7-9-----------------------------------|
A|--------------------------------------------------------------------------|
E|--------------------------------------------------------------------------|

e|--------------------------------------------------------------------------|
B|--------------------------------------------------------------------------|
G|----------10h11h12--------10h11h12-12-11-10--------12-11-10---------------|
D|--10h11h12--------10h11h12-----------------12-11-10--------12-11-10-------|
A|--------------------------------------------------------------------------|
E|--------------------------------------------------------------------------|

e|--------------------------------------------------------------------------|
B|----------10h11h12--------10h11h12-99-77-55-7-99999999999999--------------|
G|--10h11h12--------10h11h12---------99-77-55-7-99999999999999--------------|
D|--------------------------------------------------------------------------|
A|--------------------------------------------------------------------------|
E|--------------------------------------------------------------------------|

CHORUS 1
CHORUS 2
CHORUS 1
CHORUS 2

OUTRO
e|--------------------------------------------------------------------------|
B|--------------------------------------------------------------------------|
G|--------------------------------------------------------------------------|
D|-----------------5--------------------------------------------------------|
A|-999999999999--5-5--------------------------------------------------------|
E|-777777777777--3-5--------------------------------------------------------|


| \  slide down
| /  slide up
| b  bend
| h  hammer on
===============================================================================
            
Submit corrections

comments powered by Disqus
↑ Back to top | James Tabs for Control. Lyrics for acoustic guitar and electric guitar. Tablatures and chords are parodies/interpretations of the original songs. You may use it for private study, scholarship, research or language learning purposes only