» » »

America Tabs (ver.1)

Artists:  A B C D E F G H I J K L M N O P Q R S T U V W X Y Z # 

America Tabs (ver.1)

James
Rating:
0/5 (0 votes)

Hard to play? Try these video lessons and learn fast.
                #------------------------------------------------------------------------------##
This is the riff for "America", by James


Suggestions, comments, etc... e-mail me.

Thanks

e||-------------------------------------------------------------------------|
B||-------------------------------------------------------------------------|
G||>--------------------------0---------------------------------------------|
D||>---2-------2----------------------0--------0-----0--0--4--0--4--5--4--5-|
A||---------------0--3--3--3------------------------------------------------|
E||------------------------------3--3----3--3-------------------------------|

e|---------------------------------------------------------------------------|
B|---------------------------------------------------------------------------|
G|------------------------------0--------0-----------------------------------|
D|---------2--------2--------------------------------0--------0--------------|
A|---0--0-----0--0-----0--3--3-----3--3-----3--------------------------------|
E|---------------------------------------------3--3-----3--3-----3-----------|

e|----------------------------||
B|----------------------------||
G|---------------------------<||
D|---0--0--4--0--4--5--4--5--<||
A|----------------------------||
E|----------------------------||

We're going down on America
Going down on America

You made me blush you made me scream
But was it pain or ecstacy
I was never sure
I was never sure

You sucked the life right out of me
My loving cup was well received
Everyone was thrilled
Everyone was thrilled

Going down on America
Going down on America

The priceless jewels the rush of fame
I want to play your heady game
Deeper than before
Deeper than before

Those swollen lips I can't resist
Just aching for a prince's kiss
Longer than before
Longer than before

Going down on America
Going down on America
On America
On America
On America
On America
            
Hard to play? Try these video lessons and learn fast. | Correct




comments powered by Disqus
↑ Back to top | Tablatures and chords are parodies/interpretations of the original songs. You may use it for private study, scholarship, research or language learning purposes only