» » »

Jamelia, Numb Bass tabs (ver.1)

Artists:  A B C D E F G H I J K L M N O P Q R S T U V W X Y Z # 

Numb Bass tabs (ver.1)

Jamelia Tabs
 Rating:
4/5 (4 votes)
Numb lessons Tabs too difficult? Try these video lessons and learn fast
1
                -------------------------------------------------------------------------------
Numb – Jamelia (linkin Park Cover)
-------------------------------------------------------------------------------


Tuning: EADG

Intro
G|----------------------------------------------------------------------------|
D|--4-----12----------------------4-----12------------------------------------|
A|----------------12--------------------------12------------------------------|
E|----------------------12------------------------12--------------------------|
Verse (I’m Tired…)
G|----------------------------------------------------------------------------|
D|----------------------------------------------------------------------------|
A|---------5-----------------------------5------------------------------------|
E|--2------------5-----0---------2------------5------0------------------------|
Pre Chorus (1) (Caught in the Undertone…)
G|-------------------------------------------------------------|
D|-------------------------------------------------------------|
A|--5--55-------------------------5-0--  5--55-----------------|
E|-------------0---00---2----22-------------------0----00------|
Chorus (you can make up your own beat) (I’ve Become So Numb…)
G|-------------------------------------------------------|
D|-------------------------------------------------------|
A|-------------555-55------------------------------------|    X2
E|-222-22----------------555-55----000-00----------------|

Verse (Can’t You See…)

Pre Chorus (2)
G|------------------------------------------------------------------------------------|
D|------------------------------------------------------------------------------------|
A|--5--55-------------------------5-0--  5--55----------------------------5--5--------|
E|-------------0---00---2----22-------------------0----00----2----22------------------|

Chorus

Middle 8 (And I Know…)
G|-----------------------------------------------------------------------------|
D|-------4--------------2-------------4--------2------7----6-------------------|
A|-----------------------------------------------------------------------------|
E|-2------------0-----------------2--------0-------5-----4---------------------|


G|---------7-----------------------6----------6--------------4-6------R---|
D|---------------------2----------------------------------3-6----6-3--E---|
A|---5-5----5----------------4-4---4---4-4---4------4---------------4-S---|
E|-----------------0-0---0--------------------------------------------T---|
-
Final Chorus (plenty of improvisation, here’s an example: (chords :F, D, A, E)
G|--------------------------77--------------------------------------|
D|--4-----4--------4----7---7--------22-----------------------------|
A|----------------5------------5---4----4---------------------------|      x3
E|2---22---2--------------------5--------5----0-12-12\0-------------|
				          Harmonic (first 12)
G|--------------------------77-------------------------|
D|--4-----4--------4----7---7--------22----------------|
A|----------------5------------5---4----4--------------|
E|2---22---2--------------------5--------5----0--12----|
 				            (Harmonic)
Outro
G|-------------------------------------------------------------------------|
D|--4-----12----------------------4-----12---------------------4-----------|
A|----------------12--------------------------12---------------------------|
E|----------------------12------------------------12------2-----------2----|

| /  slide up
| \  slide down
| h  hammer-on
| p  pull-off
| ~  vibrato
| +  harmonic
| x  Mute note
===============================================================================
            
Submit corrections

comments powered by Disqus
↑ Back to top | Jamelia Bass for Numb. Lyrics for acoustic guitar and electric guitar. 1 Tablatures and chords are parodies/interpretations of the original songs. You may use it for private study, scholarship, research or language learning purposes only