» » »

Satin Butterfly Tabs (ver.1)

Artists:  A B C D E F G H I J K L M N O P Q R S T U V W X Y Z # 

Satin Butterfly Tabs (ver.1)

Jamaram
Rating:
5/5 (2 votes)
Tabs too difficult? Try these video lessons and learn fast.
                There´s a Guitar Pro Version as well! 


                                Satin Butterfly
                                                             Jamaram
Gitarre

     >        >          >     >
     E  E  E  Q    E  E  E     E  E  E  E  E  E  E   E
E||--------0----------0-----|-----0-----0---------------|
B||--8--------7----------5--|--------------5-----5S--8--|
G||-----0----------0--------|--0--------------0---------|
D||-------------------------|---------------------------|
A||----------------------3--|--------3------------------|
E||--8--------8-------------|---------------------------|


  >        >          >     >
  E  E  E  Q    E  E  E     E  E  E  E  E  E  E   E
--------0----------0-----|-----0-----0---------------|
--8--------7----------5--|--------------5-----5S--3--|
-----0----------0--------|--0--------------0---------|
-------------------------|---------------------------|
----------------------3--|--------3------------------|
--8--------8-------------|---------------------------|


  >        >            >     >     >  >  >             >
                                    |--3--|
  E  E  E  Q      E  E  E     E  E  S  S  S E  E  E  E  E
--------0------------0-----|-----0-------------0--------0--|
--1--------3br----------5--|--------5h-6p-5-------1--------|
-----0------------0--------|--0-------------0--------0-----|
---------------------------|-------------------------------|
---------------------------|-------------------------------|
---------------------------|-------------------------------|


  >       >                 ^   v   ^  v     v  ^  v
  Q    E  E  H              E   E   E  E  E  E  E  E
----------0-----------||---------------8-----8--8--8--|
--3----------5--------||--------8------8-----8--8--8--|
-------0--------------||*---9---9---9--9-----9--9--9--|
----------------------||*--10--10--10-----------------|
----------------------||---10------10-----------------|
----------------------||----8-------8-----------------|


  E  E  E  E  E  E  E  E     E  E  E  E  E  E  E  E
-----7-----7-----7--7--7--|-----6-----6-----6--6--6--|
--8--8--8--8-----8--8--8--|--6--6--6--6-----6--6--6--|
--7--7--7--7-----7--7--7--|--7--7--7--7-----7--7--7--|
--9--9--9--9--------------|--6--6--6--6--------------|
--7-----7-----------------|--8-----8-----------------|
--------------------------|--6-----6-----------------|


  E  E  E  E  E  E  E  E
--5--5--5--------5--5--5---||
--6--6--6--6-----6--6--6---||
--5--5--5--5-----5--5--5--*||
--7--7--7--7--------------*||
--5-----5--5---------------||
---------------------------||

Stay on the 4 chords for  verse and chorus: C - Em7 - A#7 - Dm7   played as barré. 
Strumming like in the tab.
            
Tabs too difficult? Try these video lessons and learn fast.


comments powered by Disqus
↑ Back to top | Tablatures and chords are parodies/interpretations of the original songs. You may use it for private study, scholarship, research or language learning purposes only