>
 >
 >
Shopping

Shopping Guitar Tabs

Jam - Shopping chords, tabs, tablatures, lyrics

Guitar lessons | Add/correct | Request | Top 50 tabs Artists:  A B C D E F G H I J K L M N O P Q R S T U V W X Y Z 0-9

Shopping Guitar Tabs – Jam

CD, Sheet music, Poster

Do you like Shopping? Share with your friends now
Tabs
SHOPPING by THE JAM

Written by Paul Weller
B-side of 'Beat Surrender'

Chords used:

Cmaj7:   x35453 and/or X35450
C#m7b5:  x4545x
Fmaj7/E: x87555 (E played by bass)
Am/E:    577555 (E played by bass)
Em:      022000
G:       320033 
F#m:     244222
Aaug:    x03221
F:       133211
A:       x02220

In 6/8 time (I think)

Intro (with horn arranged for guitar):

           Cmaj7      C#m7b5            Fmaj7/E  Am/E        Em
-----------3----------5--5--5--3--5--7-------------------------------------
--------------5----5--------------------8--5-----8--5--5-----5-------------
----------------------------------------------7-----------7----------------
--0--2--3---------------------------------------------------------0--2--3--

Cmaj7      C#m7b5
High town, high street connection
     Fmaj7/E        Am/E      Em
With clothes at the top of my list
    Cmaj7                       C#m7b5
You could steal things from the jewellery department
    Fmaj7/E        Am/E            Em
But you can't take kind or steal a kiss 

     Cmaj7          C#m7b5
As I flit from shop window to window
    Fmaj7/E        Am/E          Em
I'm trying to pick up a friendly bargain
         Cmaj7        C#m7b5
But it's not like the adverts all make out
            Fmaj7/E   Am/E           Em
And there's no one to greet you as a friend 

G         F#m/A         
I dress myself for the part
G              F#m   
I smile but it just don't work
           Aaug                    F
Something about my face, must just be the wrong shape
         Em                       A      Em
I better try another brand pretty quick     ha!

  Cmaj7            C#m7b5            Fmaj7/E   Am/E       Em     
--------------------------------9----10-9-7h9\7-------------------
-------------------7-9-10-9-7h9----------------10-9-7h9\7---------
--7-9-10-9-7-9-10-----------------------------------------10-9-7--
Cmaj7                         C#m7b5           
-------------------------------------------------10/12----12------
------10-12-13-12-10--------------------10-12-13-------12---------
-11/12---------------12-11-9----9-11-12---------------------------

 Fmaj7/E    Am/E             Em
--/10-8-7-5----------7--8--7----
------------8-7-8-10------------
------------------------------9-
--------------------------------
--------------------------------
--------------------------------

G         F#m       
I dress myself for the part
G              F#m   
I smile but it just don't work
           Aaug                    F
Something about my face, must just be the wrong shape
         Em                       A
I better try another brand pretty quick 

    Cmaj7          C#m7b5                  Fmaj7/E         Am/E         Em     
I'm haunted by the colours and hoardings a reminder that I must be inadequate
Cmaj7      C#m7b5       
High town, high street connection
     Fmaj7/E        Am/E      Em
With clothes at the top of my list   ha! 

  Cmaj7            C#m7b5            Fmaj7/E   Am/E       Em     
--------------------------------9----10-9-7h9\7-------------------
-------------------7-9-10-9-7h9----------------10-9-7h9\7---------
--7-9-10-9-7-9-10-----------------------------------------10-9-7--

  Cmaj7       C#m7b5       Fmaj7/E  Am/E   Em    
--7--7--8--7--8--8--8--8--\5-5----5/10-10------
--8--8--8--8--8--8--8--8--\5-5----5/10-10------
-----------------------------------------------
-----------------------------------------------
-----------------------------------------------
-----------------------------------------------

Cmaj7 C#m7b5 Fmaj7/E Am/E Em (x2)

last time:

  Em
-------------
-------------
--------0----
------2------
--0h2--------
----------0--





Comments


Popular Jam tabs & chords
That's Entertainment Bass Tabs
'a' Bomb In Wardour Street Chords
Strange Town Chords
Thats Entertainment 3 Chords
Wasteland Chords
News Of The World Tabs
Carnation Ukulele
Smithers Jones Ukulele
Tales From The Riverbank Ukulele
Thats Entertainment Ukulele


Song lyrics



↑ Back to top | Tablatures and chords are parodies/interpretations of the original songs. You may use it for private study, scholarship, research or language learning purposes only
© 2014 AZChords.com Contact us | Privacy policy | DMCA | Add/correct tabs | Request tabs | Top 50 tabs