» » »

Jam, Mr Clean Bass tabs (ver.1)

Artists:  A B C D E F G H I J K L M N O P Q R S T U V W X Y Z # 

Mr Clean Bass tabs (ver.1)

Jam Tabs
 Rating:
4/5 (4 votes)
Mr Clean lessons Tabs too difficult? Try these video lessons and learn fast
1
                
Verse 1:

   G|---|     |-----------------|
   D|---| X1  |-----------------| X8
   A|-3-|     |-5-5-5-5-5-5---3-|
   E|---|     |-------------5---|

   G|-----------------|-----------------|     |-----------------|
   D|-----------------|-----------------| X1  |-----------------| x2
   A|-5---------------|---------------3-|     |-5-5-5-5-5-5---3-|
   E|-----------------|-5---------------|     |-------------5---|
      Daylight................Mr. Clean

   G|-----------------|-----------------|     |-----------------|
   D|-----------------|-----------------| X1  |-----------------| x2
   A|-5---------------|---------------3-|     |-5-5-5-5-5-5---3-|
   E|-----------------|-5---------------|     |-------------5---|
      A...........................leave

Pre Chorus 1:

   G|-----------------|-----------------|
   D|-----------------|-----------------| X2
   A|-------5-7--5----|-------3-5--3----|
   E|-5--7----------7-|-3--5----------5-|
      You....................rush
      And....................rain

Chorus:

   G|---------------------------------|
   D|---------------------------------|
   A|-3-3-3-3/5-5-5-5/7-7-7-7\5-5-5-5-|
   E|---------------------------------|
  Mr. Clean

   G|---------------------------------|
   D|---------------------------------|
   A|-3-3-3-3/5-5-5-5/7-7-7-7\5-5-5-3-|
   E|---------------------------------|
  Mr. Clean

Verse 2:

   G|-----------------|
   D|-----------------| X4
   A|-5-5-5-5-5-5---3-|
   E|-------------5---|

   G|-----------------|-----------------|     |-----------------|
   D|-----------------|-----------------| X1  |-----------------| x2
   A|-5-5-5-5-5-5-5-5-|---------------3-|     |-5-5-5-5-5-5---3-|
   E|-----------------|-5-5-5-5-5-5-5---|     |-------------5---|
      If...........................away

   G|-----------------|-----------------|     |-----------------|
   D|-----------------|-----------------| X1  |-----------------| x2
   A|-5-5-5-5-5-5-5-5-|---------------3-|     |-5-5-5-5-5-5---3-|
   E|-----------------|-5-5-5-5-5-5-5---|     |-------------5---|
      Cause...................Mr. Clean

Pre Chorus 2:

   G|-----------------|-----------------|
   D|-----------------|-----------------| X2
   A|-------5-7--5----|-------3-5--3----|
   E|-5--7----------7-|-3--5----------5-|
      Cause..................wife
      And....................life

Chorus:

   G|---------------------------------|
   D|---------------------------------|
   A|-3-3-3-3/5-5-5-5/7-7-7-7\5-5-5-5-|
   E|---------------------------------|
  Mr. Clean

   G|---------------------------------|
   D|---------------------------------|
   A|-3-3-3-3/5-5-5-5/7-7-7-7\5-5-5-3-|
   E|---------------------------------|
  Mr. Clean

Verse 2:

   G|-----------------|
   D|-----------------| X4
   A|-5-5-5-5-5-5---3-|
   E|-------------5---|

Interlude:

   G|-----------------|-----------------|-----------------|-----------------|
X2 D|-----------------|-----------------|-----------------|-----------------|
   A|-7----7----7-9-7-|-5----5----5-7-5-|-----------------|---------------5-|
   E|-----------------|-----------------|-7----7----7-9-7-|-5-------7-------|
      Surround..........................................................but
      Please...........................................................kind

   G|-----------------|-----------------|-----------------|-----------------|
X1 D|-----------------|-----------------|-----------------|-----------------|
   A|-7-7-7-7-7-7-7-7-|-5-5-5-5-5-5-5-5-|-----------------|-----------------|
   E|-----------------|-----------------|-7-7-7-7-7-7-7-7-|-5---------------|
      Cause.................................................grind

Solo:

   G|-----------------------------------|-----------------------------------|
X2 D|-----------------------------------|-----------------------------------|
   A|-9------7------4----------7------9-|-7------5------2----------7------9-|
   E|-----------------------------------|-----------------------------------|

Interlude:

   G|-----------------------------------|-----------------------------------|
X6 D|-----------------------------------|-----------------------------------|
   A|-9------7------4----------7------9-|-7------5------2----------7------9-|
   E|-----------------------------------|-----------------------------------|
      Getting       p**sed    at     the annual        office            do
      Smart  blue   suit and you went to  Cambridge     too
      You miss page 3 but the  Times  is  right  for    you              and
      Mum    and    dad        are   very proud  of     you
      Mister        Clean                 Mister        Clean
      Mister        Clean                 Mister        Clean

   G|-----------------------------------|-----------------------------------|
   D|-----------------------------------|-----------------------------------|
   A|-3-3-3-3-3-3-3-3-3-3-3-3-3-3-3-3-3-|-----------------------------------|
   E|-----------------------------------|-3-3-3-3-3-3-3-3-3-3-3-3-3-3-3-3-3-|

Outro:

   G|-----------------|     |-----------------|
   D|-----------------| X8  |-----------------|
   A|-5-5-5-5-5-5---3-|     |-5---------------|
   E|-------------5---|     |-----------------|
            
Submit corrections

comments powered by Disqus
↑ Back to top | Jam Bass for Mr Clean. Lyrics for acoustic guitar and electric guitar. 1 Tablatures and chords are parodies/interpretations of the original songs. You may use it for private study, scholarship, research or language learning purposes only