» » »

Jam, It's Too Bad Tabs (ver.1)

Artists:  A B C D E F G H I J K L M N O P Q R S T U V W X Y Z # 

It's Too Bad Tabs (ver.1)

Jam Tabs
 Rating:
4/5 (4 votes)
It's Too Bad lessons Tabs too difficult? Try these video lessons and learn fast
                The Jam - It's Too Bad



Intro:

E -------------------------------------------
B -------------------------------------------
G -------------------------------------------
D -------------------------------------------
A ----2-5-3-2---2-----7~------9~-------------
E -3----------3----/8---8--10---10-----------

G                    C     D
All we seem to do is talk about it

G               C       B(x25xxx)
Always end up shouting about it

A                              D
There was a time when we could overcome it

A                              D
But it's too late to say we'll just forget it


G                    C      D
It's too bad that we had to break up

G                           C    B
And too much said for us to ever make up

A                              D
I could get by if I could just forget you

A                          D   
But things remind me and I feel so sad now 


Interlude:

   G          Em         C          D
E ---3-2-0------3-2-0------3-2-0----2-2-2-3-2-0-2-
B ---------3----------3----------3--3-------------
G -0----------0----------0----------2-------------
D -0----------2----------2------------------------
A -2----------2----------3------------------------
E -3----------0-----------------------------------

G                      C     D
Same old feeling everytime I see you

G                  C         B
And every avenue I walk I'm behind you

A                            D
Your back is turned and your eyes are closed girl

A                            D
You move in circles that are out of my reach now

Bridge:

Bm                                               Em
I could say I'm sorry But it's not the point is it?

C                                                       D
You want to play your games and You don't mind if I get hurt 


Repeat Interlude


Repeat second verse


Outro: repeat intro riff
            
Submit corrections

comments powered by Disqus
↑ Back to top | Jam Tabs for It's Too Bad. Lyrics for acoustic guitar and electric guitar. Tablatures and chords are parodies/interpretations of the original songs. You may use it for private study, scholarship, research or language learning purposes only