» » »

Jam, In The City Tabs (ver.2)

Artists:  A B C D E F G H I J K L M N O P Q R S T U V W X Y Z # 

In The City Tabs (ver.2)

Jam Tabs
Rating:
3/5 (2 votes)
In The City lessons Tabs too difficult? Try these video lessons and learn fast
                -------------------------------------------------------------------------------
                             In the City – The Jam
-------------------------------------------------------------------------------


Tuning: Standard

  Intro (repeat x3)
G|5-5-4-4-2-2----------------------------------------------------------------|
D|------------5-5--5-5-5-----------------------------------------------------|
A|----------------5-5-5-5----------------------------------------------------|
E|---------------------------------------------------------------------------|


  Verse (repeat x1)
G|---------------------------------------------------------------------------|
D|5-5-0-3-5----0-2-3-5-5-0-2-3-5-5-0-2-3-5-5---------------------------------|
A|----------3-3--------------------------------------------------------------|
E|---------------------------------------------------------------------------|


  Chorus (repeat x1)
G|---------------------------------------------------------------------------|
D|0-2-2-2-2-2-2-2-2-2-2-2-2-2-2-2-2------------------------------------------|
A|---------------------------------------------------------------------------|
E|---------------------------------------------------------------------------|


G|---------------------------------------------------------------------------|
D|---------------------------------------------------------------------------|
A|3-3-3-3-3-3-3-3-3-3-3-3-3-3-3-3-5-5-5-5-5-5-5-5-5-5-5-5-5-5-5-5------------|
E|---------------------------------------------------------------------------|


  Interlude
G|---------------------------------------------------------------------------|
D|----2-2-3-3-4-4-5----------------------------------------------------------|
A|5-5------------------------------------------------------------------------|
E|---------------------------------------------------------------------------|


 Bridge pt.1
G|---------------------------------------------------------------------------|
D|--2-3-5--5---2-3-5-5-------------------------------------------------------|
A|3----------3---------5-5-5-5-5-5-5-5-7-5-----------------------------------|
E|---------------------------------------------------------------------------|

  Bridge pt.2
G|--------------------------------5-5-4-4-2-2--------------------------------|
D|--------------------------------------------5-5--5-5-5---------------------|
A|5-5-5-5-5-5-5-5-3-3-3-3-3-3-3-3-----------------5-5-5-5--------------------|
E|---------------------------------------------------------------------------|


  Bridge pt.3                                          (repeat this part x1)
G|------------------------------------------------|--------------------------|
D|------------------------------------------------|--------------------------|
A|5-5-5-5-5-5-5-5-2-2-2-2-2-2-2-2-3-3-3-3-3-3-3-3-|5-5-5-5-5-5-5-5-5---------|
E|------------------------------------------------|--------------------------|


  Bridge Pt.4            End Song on
G|---------------------|5-5-4-4-2-2------------------------------------------|
D|0-0-2-2-3-3-4-4-5----|------------5-5~-------------------------------------|
A|---------------------|-----------------------------------------------------|
E|---------------------|-----------------------------------------------------|

Order:
Intro
Verse                                          Its not a hard song to play. Its just
at parts. To get an idea for the Rhythm of
Chorus                                          The Song check out the video at 
 Interlude                                     Thanks for the Time & checking out the
-Michael
Verse
Chorus
Interlude
Intro
Bridge Pt.1
Bridge Pt.2
Bridge Pt.3
Bridge Pt.4
Verse
Chorus
Intro
Chorus
End Song On
            

comments powered by Disqus
↑ Back to top | Jam Tabs for In The City. Lyrics for acoustic guitar and electric guitar. Tablatures and chords are parodies/interpretations of the original songs. You may use it for private study, scholarship, research or language learning purposes only