>
 >
 >
Girl On The Phone 1

Girl On The Phone 1 Bass Tabs

Jam - Girl On The Phone 1 chords, tabs, tablatures, lyrics

Guitar lessons | Add/correct | Request | Top 50 tabs Artists:  A B C D E F G H I J K L M N O P Q R S T U V W X Y Z 0-9

Girl On The Phone 1 Bass Tabs – Jam

CD, Sheet music, Poster

Do you like Girl On The Phone 1? Share with your friends now
Bass TabsBass Tabs v2
file. If you feel that the content of this file may be violating   
copyright law, you may not use the information displayed here in any way.    
##----------------------------------------------------------------------##


 GIRL ON THE PHONE
 
 BASSIST: BRUCE FOXTON

 (0)= DO NOT PICK
                                    (A)
G|------|----------------------------|----------------------------------|
D|------|----------------------------|----------------------------------|
A|------|--5--------5----------------|-5-----------5--------------------|
E|-3--5-|-----7--5-----7--5--7--3--5-|-----7---5-------7---5---7---3--5-|
			

                                   (B)
G|----------------------------------|----------------------------------|
D|----------------------------------|----------------------------------|
A|-5-----------5--------------------|-5-----------5--------------------|
E|-----7---5-------7---5---7---3--5-|-----7---5-------7---5---7---3--5-|


                                   (C)
G|----------------------------------|----------------------------------|
D|----------------------------------|----------------------------------|
A|-5-----------5--------------------|-5-----------5--------------------|
E|-----7---5-------7---5---7---3--5-|-----7---5-------7---5---7---3--5-|


                                   (D)
G|----------------------------------|----------------------------------|
D|----------------------------------|----------------------------------|
A|-5-----------5--------------------|-5-----------5--------------------|
E|-----7---5-------7---5---7---3--5-|-----7---5-------7---5---7---3--5-|


                                   (E)
G|----------------------------------|----------------------------------|
D|----------------------------------|----------------------------------|
A|-5-----------5------------------5-|-------9---9----10---10---9---7---|
E|-----7---5-------7--5--7--3--5----|--7-------------------------------|


                                   (F)
G|----------------------------------|----------------------------------|
D|--------7---7----9---9---7--------|----------------------------------|
A|-5----------------------------9---|-------9---9----10---10---9---7---|
E|----------------------------------|-7--------------------------------|


                                   (G)
G|----------------------------------|----------------------------------|
D|--------7---7----9---9---7--------|----------------------------------|
A|-5----------------------------7---|-------9---9----10---10---9---7---|
E|----------------------------------|-7--------------------------------|


                                   (H)
G|----------------------------------|----------------------------------|
D|--------7---7----9---9---7--------|----------------------------------|
A|-5----------------------------7---|----------------------------------|
E|----------------------------------|-2-2-2-2--2-2-2-2--2-2-2-2---3--5-|


                                   (I)
G|----------------------------------|----------------------------------|
D|----------------------------------|----------------------------------|
A|-5-----------5--------------------|-5-----------5--------------------|
E|-----7---5-------7---5---7---3--5-|-----7---5-------7---5---7---3--5-|


                                   (J)
G|----------------------------------|----------------------------------|
D|----------------------------------|----------------------------------|
A|-5-----------5--------------------|-5-----------5--------------------|
E|-----7---7--------------5---3---5-|-----7---5-------7---5---7---3--5-|


                                   (K)
G|----------------------------------|----------------------------------|
D|----------------------------------|----------------------------------|
A|-5-----------5--------------------|-5-----------5--------------------|
E|-----7---5--------------5---3---5-|-----7---5-------7---5---7---3--5-|


                                   (L)
G|----------------------------------|----------------------------------|
D|----------------------------------|----------------------------------|
A|-5-----------5--------------------|-5-----------5------------------5-|
E|-----7---5--------------5---3---5-|-----7---5-------7--5--7--3--5----|


                                   (M)
G|----------------------------------|----------------------------------|
D|----------------------------------|--------7---7----9---9---7--------|
A|-------9---9----10---10---9---7---|-5----------------------------9---|
E|-7--------------------------------|----------------------------------|


                                   (N)
G|----------------------------------|----------------------------------|
D|----------------------------------|--------7---7----9---9---7--------|
A|-------9---9----10---10---9---7---|-5----------------------------9---|
E|-7--------------------------------|----------------------------------|


                                   (O)
G|----------------------------------|----------------------------------|
D|----------------------------------|--------7---7----9---9---7--------|
A|-------9---9----10---10---9---7---|-5----------------------------9---|
E|-7--------------------------------|----------------------------------|


                                   (P)
G|----------------------------------|
D|----------------------------------|
A|----------------------------------|
E|-2-2-2-2--2-2-2-2--2-2-2-2---3--5-|


                                   (Q)
G|----------------------------------|----------------------------------|
D|----------------------------------|----------------------------------|
A|----------------------------------|-----2------2---2-----2--2--2-----|
E|-----2------2---2-----2--2--2-----|----------------------------------|


                                   (R)
G|----------------------------------|----------------------------------|
D|----------------------------------|----------------------------------|
A|-----6------6---6-----6--6--6-----|----------------------------------|
E|----------------------------------|-----4------4---4-----4--4--4-----|


                                   (S)
G|----------------------------------|----------------------------------|
D|----------------------------------|----------------------------------|
A|-----4------4---4-----4--4--4-----|----------------------------------|
E|----------------------------------|-----2------2---2-----2--2--2-----|


                                   (T)
G|----------------------------------|----------------------------------|
D|----------------------------------|----------------------------------|
A|---4--4--4--4----4--4--4--4-------|----------------------------------|
E|----------------------------------|---2--2--2--2----2--2--2--2-------|


                                   (U)
G|----------------------------------|----------------------------------|
D|----------------------------------|---2--4--2-------------2--4--2----|
A|---4--4--4--4----4--4--4--4-------|-2----------2--0--2--2------------|
E|----------------------------------|-------------------------------3--5|


                                   (V)
G|----------------------------------|----------------------------------|
D|----------------------------------|----------------------------------|
A|-5-----------5--------------------|-5-----------5--------------------|
E|-----7---5-------7---5---7---3--5-|-----7---5-------7---5---7---3--5-|


                                   (W)
G|----------------------------------|----------------------------------|
D|----------------------------------|----------------------------------|
A|-5-----------5--------------------|-5-----------5--------------------|
E|-----7---5-------7---5---7---3--5-|-----7---5-------7---5---7---3--5-|


                                   (X)
G|----------------------------------|----------------------------------|
D|----------------------------------|----------------------------------|
A|-5-----------5--------------------|-5-----------5--------------------|
E|-----7---5-------7---5---7---3--5-|-----7---5-------7---5---7---3--5-|


                                   (Y)
G|----------------------------------|----------------------------------|
D|----------------------------------|----------------------------------|
A|-5-----------5------------------5-|-------9---9----10---10---9---7---|
E|-----7---5-------7--5--7--3--5----|-7--------------------------------|


                                   (Z)
G|----------------------------------|----------------------------------|
D|--------7---7----9---9---7--------|----------------------------------|
A|-5----------------------------7---|-------9---9----10---10---9---7---|
E|----------------------------------|-7--------------------------------|


                                   (AA)
G|----------------------------------|----------------------------------|
D|--------7---7----9---9---7--------|----------------------------------|
A|-5----------------------------7---|----------------------------------|
E|----------------------------------|-7------7--6------6--5------5--4--|


                                   (AB)
G|----------------------------------|----------------------------------|
D|----------0---2-------0---2---4---|----------0---2-------0---2---4---|
A|--2---4-----------4---------------|--2---4-----------4---------------|
E|----------------------------------|----------------------------------|


                                   (AC)
G|----------------------------------|----------------------------------|
D|-------0--2----4-4--2-2--0-0------|------0--2------------2--4--5--6--7|
A|-2--4------------------------4-4--|-2--4------0--2--4--5-------------|
E|----------------------------------|----------------------------------|


                                   (AD)
G|----------------------------------|----------------------------------|
D|----------------------------------|----------------------------------|
A|----------------------------------|-----2------2---2-----2--2--2-----|
E|-----2------2---2-----2--2--2-----|----------------------------------|


                                   (AE)
G|----------------------------------|----------------------------------|
D|----------------------------------|----------------------------------|
A|-----6------6---6-----6--6--6-----|----------------------------------|
E|----------------------------------|-----4------4---4-----4--4--4-----|


                                   (AF)
G|----------------------------------|----------------------------------|
D|----------------------------------|----------------------------------|
A|-----4------4---4-----4--4--4-----|----------------------------------|
E|----------------------------------|-----2------2---2-----2--2--2-----|


                                   (AG)
G|----------------------------------|----------------------------------|
D|----------------------------------|----------------------------------|
A|---4--4--4--4----4--4--4--4-------|----------------------------------|
E|----------------------------------|---2--2--2--2----2--2--2--2-------|


                                   (AH)
G|----------------------------------|----------------------------------|
D|----------------------------------|---2--4--2-------------2--4--2----|
A|---4--4--4--4----4--4--4--4-------|-2----------2--0--2--2------------|
E|----------------------------------|-------------------------------3--5|


                                   (AI)
G|----------------------------------|----------------------------------|
D|----------------------------------|----------------------------------|
A|-7--7--7---7----7--7---7--(0)-----|-7--7--7--7----7--7--7--(0)-------|
E|-----------------------------5--7-|-----------------------------5--7-|


                                   (AJ)
G|----------------------------------|----------------------------------|
D|----------------------------------|----------------------------------|
A|-7--7--7--7----7--7--7--(0)-------|-7--7--7--7----7--7--7--(0)-------|
E|-----------------------------5--7-|-----------------------------5--7-|


                                   (AK)
G|----------------------------------|----------------------------------|
D|----------------------------------|----------------------------------|
A|-7--7--7--7----7--7--7--(0)-------|-7--7--7--7----7--7--7--(0)-------|
E|-----------------------------5--7-|-----------------------------5--7-|


                                   (AL)
G|----------------------------------|----------------------------------|
D|----------------------------------|----------------------------------|
A|-7--7--7--7----7--7--7--(0)-------|-7--7--7--7----7--7--7--(0)-------|
E|-----------------------------5--7-|-----------------------------5--7-|


                                   (AM)
G|-------------------------------------|
D|-------------------------------------|
A|-7--7--7--7----7--7--7--(0)--------7-|
E|-----------------------------5--7----|





Comments


Popular Jam tabs & chords
Mr. Clean Bass Tabs
Precious Bass Tabs
Smithers Jones Chords
David Watts Intro Tabs
Fly Tabs
See Saw Tabs
Town Called Malice Tabs
A Bomb In Wardour Street Ukulele
In The Street Today Ukulele
Slow Down Ukulele


Song lyrics



↑ Back to top | Tablatures and chords are parodies/interpretations of the original songs. You may use it for private study, scholarship, research or language learning purposes only
© 2014 AZChords.com Contact us | Privacy policy | DMCA | Add/correct tabs | Request tabs | Top 50 tabs