» » »

Girl On The Phone Bass tabs (ver.1)

Artists:  A B C D E F G H I J K L M N O P Q R S T U V W X Y Z # 

Girl On The Phone Bass tabs (ver.1)

Jam
Rating:
0/5 (0 votes)

Hard to play? Try these video lessons and learn fast.
                			     Girl on the phone - The jam


Tuning:standard

main riff

G|-------------------------------------------------------------------|
D|-------------------------------------------------------------------|
A|----5505555---5505555----------------------------------------------|
E|-5-7-------3-5-------5-7-------------------------------------------|

2nd riff

G|-------------------------------------------------------------|
D|--557755-779977-557755-779977--------------------------------|
A|-5------5------5------5--------------------------------------|
E|-------------------------------------------------------------|

3rd riff

G|---------------------------------------------------------------------|
D|---------------------------------------------------------------------|
A|-55555555-77777777---------------------------------------------------|
E|------------------33333333-55555555----------------------------------|

4th riff

G|--------------------------------------------------------------------|
D|--------------------------------------------------------------------|
A|-2-4-7-9-9-7-4-2-22-44-77-99-99-77-44-22----------------------------|
E|--------------------------------------------------------------------|

5th riff (outro)

G|-----------------------------------------------------------------|
D|-----------------------------------------------------------------|
A|-7707777---7707777---7707777---7707777---7-----------------------|
E|--------5-7-------7-9-------5-7-------7-9------------------------|


| /  slide up
| \  slide down
| h  hammer-on
| p  pull-off
| ~  vibrato
| +  harmonic
| x  Mute note
            
Hard to play? Try these video lessons and learn fast. | Correct




comments powered by Disqus
↑ Back to top | Tablatures and chords are parodies/interpretations of the original songs. You may use it for private study, scholarship, research or language learning purposes only