» » »

Jam, English Rose Tabs (ver.2)

Artists:  A B C D E F G H I J K L M N O P Q R S T U V W X Y Z # 

English Rose Tabs (ver.2)

Jam Tabs
Rating:
0/5 (0 votes)
English Rose lessons Tabs too difficult? Try these video lessons and learn fast
                --------------------------------------------------|
--------------------------------------------------|
--------5--------5--------------5--------5--------|
-----6--------6--------6-----6--------6--------6--|
--6--------6--------6-----5--------5--------5-----|
--------------------------------------------------|

---------------------------------------------------|
--------------------------6--6--6----6--6--6-------|
--------5--------5---------------------------------|
-----6--------6--------6---------------------------|
--4--------4--------4-----4--4--4----5--5--5-------|
---------------------------------------------------|

----------------------------------------------------|
--6--6--6--6--6-------------------------------------|
-------------------------5--------5-----------------|
----------------------6--------6--------5-----------|
--4--4--4--4--4----6--------6--------6--------------|
----------------------------------------------------|

----------------------------------------------------|
----------------------------------------------------|
--------------------------------5--------5----------|
--------6--------6-----------6--------6--------6----|
-----6--------6--------6--5--------5--------5-------|
--4--------4--------4-------------------------------|

-----------------------------------------------|
--------------------------6-6-6--6-6-6--6-6-6--|
--------5--------5-----------------------------|
-----6--------6--------6-----------------------|
--4--------4--------4-----4-4-4--5-5-5--4-4-4--|
-----------------------------------------------|

--------------------------------|
--------------------------------|
------5--------5----------------|
---6--------6--------5----------|
-6--------6--------6------------|
--------------------------------|

--------------------------------|
--------------------------------|
------5--------5----------------|
---6--------6--------5----------|
-6--------6--------6------------|
--------------------------------|

----------------------------------------------------|
----------------------------------------------------|
--------------------------------5--------5----------|
--------6--------6-----------6--------6--------6----|
-----6--------6--------6--5--------5--------5-------|
--4--------4--------4-------------------------------|

--------------------------|
--------------------------|
--------5--------5--------|
-----6--------6--------6--|
--4--------4--------4-----|
--------------------------|

--------------------------------|
--------------------------------|
------5--------5----------------|
---6--------6--------5----------|
-6--------6--------6------------|
--------------------------------|

----------------------------------------------------|
----------------------------------------------------|
--------------------------------5--------5----------|
--------6--------6-----------6--------6--------6----|
-----6--------6--------6--5--------5--------5-------|
--4--------4--------4-------------------------------|

---------------------------|
---------------------------|
--------5--------5---------|
-----6--------6--------6---|
--4--------4--------4------|
---------------------------|

---------------------------------|
---------------------------------|
------5--------5-----------------|
---6--------6--------5-----------|
-6--------6--------6-------------|
---------------------------------|

----------------------------------------------------|
----------------------------------------------------|
--------------------------------5--------5----------|
--------6--------6-----------6--------6--------6----|
-----6--------6--------6--5--------5--------5-------|
--4--------4--------4-------------------------------|

-------------------------------------------------|
--------------------------6-6-6--6-6-6--6-6-6----|
--------5--------5-------------------------------|
-----6--------6--------6-------------------------|
--4--------4--------4-----4-4-4--5-5-5--4-4-4----|
-------------------------------------------------|

---------------------------------|
---------------------------------|
------5--------5-----------------|
---6--------6--------5-----------|
-6--------6--------6-------------|
---------------------------------|

---------------------------------|
---------------------------------|
------5--------5-----------------|
---6--------6--------5-----------|
-6--------6--------6-------------|
---------------------------------|

----------------------------------------------------|
----------------------------------------------------|
--------------------------------5--------5----------|
--------6--------6-----------6--------6--------6----|
-----6--------6--------6--5--------5--------5-------|
--4--------4--------4-------------------------------|

---------------------------|
---------------------------|
--------5--------5---------|
-----6--------6--------6---|
--4--------4--------4------|
---------------------------|

----------------------------------|
----------------------------------|
------5--------5------------------|
---6--------6--------5------------|
-6--------6--------6--------------|
----------------------------------|

----------------------------------------------------|
----------------------------------------------------|
--------------------------------5--------5----------|
--------6--------6-----------6--------6--------6----|
-----6--------6--------6--5--------5--------5-------|
--4--------4--------4-------------------------------|

----------------------------|
----------------------------|
--------5--------5----------|
-----6--------6--------6----|
--4--------4--------4-------|
----------------------------|

----------------------------------|
----------------------------------|
------5--------5------------------|
---6--------6--------5------------|
-6--------6--------6--------------|
----------------------------------|

----------------------------------------------------|
----------------------------------------------------|
--------------------------------5--------5----------|
--------6--------6-----------6--------6--------6----|
-----6--------6--------6--5--------5--------5-------|
--4--------4--------4-------------------------------|

-------------------------------------------------|
--------------------------6-6-6--6-6-6--6-6-6----|
--------5--------5-------------------------------|
-----6--------6--------6-------------------------|
--4--------4--------4-----4-4-4--5-5-5--4-4-4----|
-------------------------------------------------|

----------------------------------|
----------------------------------|
------5--------5------------------|
---6--------6--------5------------|
-6--------6--------6--------------|
----------------------------------|

----------------------------------|
----------------------------------|
------5--------5------------------|
---6--------6--------5------------|
-6--------6--------6--------------|
----------------------------------|

xxxxxxxxxxxxxxxxxxxxxxxxxxxxxxxxx

  A/E                     Ebm7b5
----------------------------------------------------|
----------------------------------------------------|
--------6--------6--------------6--------6----------|
-----7--------7--------7-----7--------7--------7----|
--7--------7--------7-----6--------6--------6-------|
----------------------------------------------------|

   Dmaj7             Ab/Eb
----------------------------------------------------------|
----------------------------------------------------------|
---------6--------6-------------6--------6----------------|
------7--------7------7------7--------7------7------------|
---5--------5-------5-----7--------7-------7--------------|
----------------------------------------------------------|

  A                       Ebm7b5
----------------------------------------------------|
----------------------------------------------------|
--------------------------------6--------6----------|
--------7--------7-----------7--------7--------7----|
-----7--------7--------7--6--------6--------6-------|
--5--------5--------5-------------------------------|

   Dmaj7             Ab/Eb
----------------------------------------------------------|
----------------------------------------------------------|
---------6--------6-------------6--------6----------------|
------7--------7------7------7--------7------7------------|
---5--------5-------5-----7--------7-------7--------------|
----------------------------------------------------------|

  A                       Ebm7b5
----------------------------------------------------|
----------------------------------------------------|
--------------------------------6--------6----------|
--------7--------7-----------7--------7--------7----|
-----7--------7--------7--6--------6--------6-------|
--5--------5--------5-------------------------------|


  Dmaj7                            Ebm7b5
----------------------------------------------------|
--------------------------7--7--7--7--7--7----------|
--------6--------6----------------------------------|
-----7--------7--------6----------------------------|
--5--------5--------5-----5--5--5--6--6--6----------|
----------------------------------------------------|

  Dmaj7    A/E                     Ebm7b5
------------------------------------------------------|
--7--7--7---------------------------------------------|
-----------------6--------6--------------6-----6------|
--------------7--------7--------7-----7------7----7---|
--5--5--5--7--------7--------7-----6-------6-----6----|
------------------------------------------------------|

  Dmaj7                            A/E        A
-----------------------------------------------------|
--------------------------7--7--7--------------10----|
--------6--------6-----------------------6-----------|
-----7--------7--------7--------------7-----7--7-----|
--5--------5--------5-----5--5--5--7-----------------|
-----------------------------------------------------|


compiled from other tabs
            

comments powered by Disqus
↑ Back to top | Jam Tabs for English Rose. Lyrics for acoustic guitar and electric guitar. Tablatures and chords are parodies/interpretations of the original songs. You may use it for private study, scholarship, research or language learning purposes only