» » »

Jam, Dreams Of Children Tabs (ver.2)

Artists:  A B C D E F G H I J K L M N O P Q R S T U V W X Y Z # 

Dreams Of Children Tabs (ver.2)

Jam Tabs
Rating:
0/5 (0 votes)
Dreams Of Children lessons Tabs too difficult? Try these video lessons and learn fast
                THE JAM - DREAMS OF CHILDREN

A FEW TABS ALREADY BUT THEY WEREN'T QUITE RIGHT, THIS IS SPOT ON, ENJOY :)


G-----9-9-----9-9-----9-9-----9-9-------|
D---------------------------------------|
A---7-----7-7-----7-7-----7-7-----------|
E---------------------------------------| x1



G---------------------------------------|
D---------------------------------------|
A-------------------7--6-7-6------------|
E---7-9-7-9--7--9-----------------------| x4



G---------------------------------------|
D---------------------------------------|
A------------------7-7-7----------------|
E---7-7-7-7h9--7---------9--------------| x1



G---------------------------------------|
D---------------------------------------|
A------------------7-7-7----------------|
E---7-7-7-7h9--7------------------------| x1



G---------------------------------------|
D-----7-7---7-7---7-7---7-7---9-9---9-9-|
A---------------------------------------|
E---5----5-5---5-5---5-5---7-7---7-7----| x1



G-----9-9-----9-9-----9-9-----9-9-------|
D---------------------------------------|
A---7-----7-7-----7-7-----7-7-----------|
E---------------------------------------| x1



G---------------------------------------|
D---------------------------------------|
A-------------------7--6-7-6------------|
E---7-9-7-9--7--9-----------------------| x4



G---------------------------------------|
D---------------------------------------|
A------------------7-7-7----------------|
E---7-7-7-7h9--7---------9--------------| x1



G---------------------------------------|
D---------------------------------------|
A------------------7-7-7----------------|
E---7-7-7-7h9--7------------------------| x1




G---------------------------------------|
D-----7-7---7-7---7-7---7-7-------------|
A---------------------------------------|
E---5----5-5---5-5---5-5----------------| x1



G---------------------------------------|
D----------4-4-------------6-6----------|
A------4-4-----4-4-----6-6-----6-6/-----|
E--2-2-------------4-4------------------| x6



G---------------------------------------|
D-----7-7---7-7---7-7---7-7---9-9---9-9-|
A---------------------------------------|
E---5----5-5---5-5---5-5---7-7---7-7----| x1



G-----9-9-----9-9-----9-9-----9-9-------|
D---------------------------------------|
A---7-----7-7-----7-7-----7-7-----------|
E---------------------------------------| x1



G-----9-------9-------9-------9---------|
D---9---9---9---9---9-------9-----------|
A-7-------7-------7-------7-------------|
E---------------------------------------| x4



G---------------------------------------|
D-----7-7---7-7---7-7---7-7---9-9---9-9-|
A---------------------------------------|
E---5----5-5---5-5---5-5---7-7---7-7----| x1



G-----9-9-----9-9-----9-9-----9-9-------|
D---------------------------------------|
A---7-----7-7-----7-7-----7-7-----------|
E---------------------------------------| x1



G---------------------------------------|
D---------------------------------------|
A-------------------7--6-7-6------------|
E---7-9-7-9--7--9-----------------------| x4



G---------------------------------------|
D---------------------------------------|
A------------------7-7-7----------------|
E---7-7-7-7h9--7---------9--------------| x1



G---------------------------------------|
D---------------------------------------|
A------------------7-7-7----------------|
E---7-7-7-7h9--7------------------------| x1



G---------------------------------------|
D-----7-7---7-7---7-7---7-7---9-9---9-9-|
A---------------------------------------|
E---5----5-5---5-5---5-5---7-7---7-7----| x1



G---------------------------------------|
D----------4-4-------------6-6----------|
A------4-4-----4-4-----6-6-----6-6/-----|
E--2-2-------------4-4------------------| ...until fade.
            

comments powered by Disqus
↑ Back to top | Jam Tabs for Dreams Of Children. Lyrics for acoustic guitar and electric guitar. Tablatures and chords are parodies/interpretations of the original songs. You may use it for private study, scholarship, research or language learning purposes only