» » »

Down In The Tube Station At The Midnight Bass tabs (ver.3)

Artists:  A B C D E F G H I J K L M N O P Q R S T U V W X Y Z # 

Down In The Tube Station At The Midnight Bass tabs (ver.3)

Jam
Rating:
4/5 (3 votes)

Tabs too difficult? Try these video lessons and learn fast.
                "THE JAM - DOWN IN THE TUBESTATION AT MIDNIGHT

DECIDED TO HAVE A STAB AT THIS MYSELF, HAVE FUN ;)


G-----------------5-7--------------5755------------------|
D--------5-7---7-----------5-7---7-----7-----------------|
A-----7-----5-----------7-----5--------------------------|
E--5-----------------5-----------------------------------|

notes in *stars* are harmonics.

G------------*7*----------------------5-7----------------|
D--------5-7----*7*----------5-7---7---------------------|
A-----7-----5------*7*----7-----5------------------------|
E--5-------------------5-----------------3--3----3--3----|

G-----------------575----------------5-7-----------------|
D--------5-7---7-----7------5-7---7----------------------|
A-----7-----5------------7-----5-------------------------|
E--5------------------5-----------------3--3----3--3-----|

G--------------------------------------------------------|
D--------------------------------------------------------|
A--0022334555778899/-0022334555778899/-------------------|
E----------------------------------------3--3----3--3----|


G--------------------------------------------------------|
D--------------------------------------------------------|
A--0022334555778899/-0022334555778899/-------------------|
E--------------------------------------------------------|


G--------------------------------------------------------|
D---------------------2-2-----7-75-----------------------|
A-----2-2-02-25-5203-3---305-5----7----------------------|
E--3-3---3-----------------------------------------------| x2


G--------------------------------------------------------|
D---------------------5-53-----7-75----------------------|
A-----2-2-02-25-5203-3----5-5------7---------------------|
E--3-3---3-----------------------------------------------| x1


G-----------------5-75---------------5-7-----------------|
D--------5-7---7------7-----5-7---7----------------------|
A-----7-----5-------------7----5-------------------------|
E--5-------------------5---------------------------------|


G------------*7*----------------------57-----------------|
D--------5-7----*7*----------5-7---7----7----------------|
A-----7-----5------*7*----7-----5------------------------|
E--5-------------------5-----------------3--3----3--3----|


G-----------------5-7---------------5-7------------------|
D--------5-7---7-----------5-7---7-----------------------|
A-----7-----5-----------7-----5--------------------------|
E--5-----------------5-----------------3--3----3--3------|


G--------------------------------------------------------|
D--------------------------------------------------------|
A--0022334555778899/-0022334555778899/-------------------|
E----------------------------------------3--3----3--3----|


G--------------------------------------------------------|
D--------------------------------------------------------|
A--0022334555778899/-0022334555778899/-------------------|
E--------------------------------------------------------|


G--------------------------------------------------------|
D---------------------2-2-----7-75-----------------------|
A-----2-2-02-25-5203-3---305-5----7----------------------|
E--3-3---3-----------------------------------------------| x2


G--------------------------------------------------------|
D---------------------5-53-----7-75----------------------|
A-----2-2-02-25-5203-3----5-5------7---------------------|
E--3-3---3-----------------------------------------------| x1


G-----------------5-75---------------5-7-----------------|
D--------5-7---7------7-----5-7---7----------------------|
A-----7-----5-------------7----5-------------------------|
E--5-------------------5---------------------------------|


G------------*7*----------------------5-7----------------|
D--------5-7----*7*----------5-7---7---------------------|
A-----7-----5------*7*----7-----5------------------------|
E--5-------------------5-----------------3--3----3--3----|


G-----------------5755---------------5-7-----------------|
D--------5-7---7------7-----5-7---7----------------------|
A-----7-----5-------------7----5-------------------------|
E--5-------------------5----------------3--3----3--3-----|


G--------------------------------------------------------|
D--------------------------------------------------------|
A--0022334555778899/-0022334555778899/-------------------|
E----------------------------------------3--3----3--3----|


G--------------------------------------------------------|
D--------------------------------------------------------|
A--0022334555778899/-0022334555778899/-------------------|
E--------------------------------------------------------|


G---------------------------------------------------|
D---------------------------------------------------|
A----------22222222-33333333-55555555---------------|
E--33333333-----------------------------------------|


G--------------------------------------------------------|
D---------------------2-2-----7-75-----------------------|
A-----2-2-02-25-5203-3---305-5----7----------------------|
E--3-3---3-----------------------------------------------|


G--------------------------------------------------------|
D---------------------2-2--------------------------------|
A-----2-2-02-25-5203-3---305-----------------------------|
E--3-3---3-----------------------------------------------|


G---------------------------------------------------|
D---------------------------------------------------|
A----------22222222-33333333-55555555---------------|
E--33333333-----------------------------------------| ...until fade.
"            
Tabs too difficult? Try these video lessons and learn fast.


comments powered by Disqus
↑ Back to top | Tablatures and chords are parodies/interpretations of the original songs. You may use it for private study, scholarship, research or language learning purposes only