» » »

Jam, Balliamo Un Po Tabs (ver.1)

Artists:  A B C D E F G H I J K L M N O P Q R S T U V W X Y Z # 

Balliamo Un Po Tabs (ver.1)

Jam Tabs
 Rating:
4.3/5 (6 votes)
Balliamo Un Po lessons Tabs too difficult? Try these video lessons and learn fast
1
                
I tried and here it is, enjoy! ;)


intro:
E---------------------7--5--------|----------------------------------|
B---------------------x--x--------|----------------------------------|
G---------------------5--3--------|----------------------------------|
D--2--5--7---x-x-x-x--------------|--2-x-x--5-x-x--7-----------------|
A--x--x--x---x-x-x-x--------------|--x-x-x--x-x-x--x--5~6~7--5~6~7---|
E--0--3--5---x-x-x-x--------------|--0-x-x--3-x-x--5-----------------|

E--------------------------7--5---|---------------------x-x-x-x-x-x--|
B--------------------------x--x---|---------------------x-x-x-x-x-x--|
G--------------------------5--3---|---------------------x-x-x x-x-x--|
D--2-x-x--5-x-x--7-x-x-x-x--------|--2-x-x--5-x-x--7-----------------|
A--x-x-x--x-x-x--x-x-x-x-x--------|--x-x-x--x-x-x--x-----------------|
E--0-x-x--3-x-x--5-x-x-x-x--------|--0-x-x--3-x-x--5-----------------|


E---------------------7--5--------|----------------------------------|
B---------------------x--x--------|----------------------------------|
G---------------------5--3--------|----------------------------------|
D--2--5--7---x-x-x-x--------------|--2-x-x--5-x-x--7-----------------|
A--x--x--x---x-x-x-x--------------|--x-x-x--x-x-x--x--5~6~7--5~6~7---|
E--0--3--5---x-x-x-x--------------|--0-x-x--3-x-x--5-----------------|

E--------------------------7--5---|----------------------------------|
B--------------------------x--x---|----------------------------------|
G--------------------------5--3---|----------------------------------|
D--2-x-x--5-x-x--7-x-x-x-x--------|--2-x-x--5-x-x--7-----------------|
A--x-x-x--x-x-x--x-x-x-x-x--------|--x-x-x--x-x-x--x-----------------|
E--0-x-x--3-x-x--5-x-x-x-x--------|--0-x-x--3-x-x--5-----------------|


vers 1:

E---------------------7--5--------|----------------------------------|
B---------------------x--x--------|----------------------------------|
G---------------------5--3--------|----------------------------------|
D--2--5--7---x-x-x-x--------------|--2-x-x--5-x-x--7-x-x-x-x---------|
A--x--x--x---x-x-x-x--------------|--x-x-x--x-x-x--x-x-x-x-x---------|
E--0--3--5---x-x-x-x--------------|--0-x-x--3-x-x--5-x-x-x-x---------|

E--------------------------7--5---|----------------------------------|
B--------------------------x--x---|----------------------------------|
G--------------------------5--3---|----------------------------------|
D--2-x-x--5-x-x--7-x-x-x-x--------|--2-x-x--5-x-x--7-----------------|
A--x-x-x--x-x-x--x-x-x-x-x--------|--x-x-x--x-x-x--x----5~6~7--------|
E--0-x-x--3-x-x--5-x-x-x-x--------|--0-x-x--3-x-x--5-----------------|


E---------------------7--5--------|----------------------------------|
B---------------------x--x--------|----------------------------------|
G---------------------5--3--------|----------------------------------|
D--2--5--7---x-x-x-x--------------|--2-x-x--5-x-x--7-x-x-x-x---------|
A--x--x--x---x-x-x-x--------------|--x-x-x--x-x-x--x-x-x-x-x---------|
E--0--3--5---x-x-x-x--------------|--0-x-x--3-x-x--5-x-x-x-x---------|

E--------------------------7--5---|
B--------------------------x--x---|
G--------------------------5--3---|
D--2-x-x--5-x-x--7-x-x-x-x--------|
A--x-x-x--x-x-x--x-x-x-x-x--------|
E--0-x-x--3-x-x--5-x-x-x-x--------|

ref:

   Em                G                 A                 C           x4
E--0--0--0--0-----|--3--3--3--3-----|-----------------|--0--0--0--0--0--|
B--0--0--0--0-----|--3--3--3--3-----|--2--2--2--2-----|--1--1--1--1--1--|
G--0--0--0--0-----|--0--0--0--0-----|--2--2--2--2-----|--0--0--0--0--0--|
D--2--2--2--2-----|--0--0--0--0-----|--2--2--2--2-----|--2--2--2--2--2--|
A--2--2--2--2-----|--2--2--2--2-----|--0--0--0--0-----|--3--3--3--3--3--|
E--0--0--0--0-----|--3--3--3--3-----|-----------------|-----------------|


vers 2:

E---------------------7--5--------|----------------------------------|
B---------------------x--x--------|----------------------------------|
G---------------------5--3--------|----------------------------------|
D--2--5--7---x-x-x-x--------------|--2-x-x--5-x-x--7-x-x-x-x---------|
A--x--x--x---x-x-x-x--------------|--x-x-x--x-x-x--x-x-x-x-x---------|
E--0--3--5---x-x-x-x--------------|--0-x-x--3-x-x--5-x-x-x-x---------|

E--------------------------7--5---|----------------------------------|
B--------------------------x--x---|----------------------------------|
G--------------------------5--3---|----------------------------------|
D--2-x-x--5-x-x--7-x-x-x-x--------|--2-x-x--5-x-x--7-----------------|
A--x-x-x--x-x-x--x-x-x-x-x--------|--x-x-x--x-x-x--x----5~6~7--------|
E--0-x-x--3-x-x--5-x-x-x-x--------|--0-x-x--3-x-x--5-----------------|


E---------------------7--5--------|----------------------------------|
B---------------------x--x--------|----------------------------------|
G---------------------5--3--------|----------------------------------|
D--2--5--7---x-x-x-x--------------|--2-x-x--5-x-x--7-x-x-x-x---------|
A--x--x--x---x-x-x-x--------------|--x-x-x--x-x-x--x-x-x-x-x---------|
E--0--3--5---x-x-x-x--------------|--0-x-x--3-x-x--5-x-x-x-x---------|

E--------------------------7--5---|
B--------------------------x--x---|
G--------------------------5--3---|
D--2-x-x--5-x-x--7-x-x-x-x--------|
A--x-x-x--x-x-x--x-x-x-x-x--------|
E--0-x-x--3-x-x--5-x-x-x-x--------|

ref:

   Em                G                 A                 C           x4
E--0--0--0--0-----|--3--3--3--3-----|-----------------|--0--0--0--0--0--|
B--0--0--0--0-----|--3--3--3--3-----|--2--2--2--2-----|--1--1--1--1--1--|
G--0--0--0--0-----|--0--0--0--0-----|--2--2--2--2-----|--0--0--0--0--0--|
D--2--2--2--2-----|--0--0--0--0-----|--2--2--2--2-----|--2--2--2--2--2--|
A--2--2--2--2-----|--2--2--2--2-----|--0--0--0--0-----|--3--3--3--3--3--|
E--0--0--0--0-----|--3--3--3--3-----|-----------------|-----------------|





E---------------------7--5--------|----------------------------------|
B---------------------x--x--------|----------------------------------|
G---------------------5--3--------|----------------------------------|
D--2--5--7---x-x-x-x--------------|--2-x-x--5-x-x--7-----------------|
A--x--x--x---x-x-x-x--------------|--x-x-x--x-x-x--x--5~6~7--5~6~7---|
E--0--3--5---x-x-x-x--------------|--0-x-x--3-x-x--5-----------------|

E--------------------------7--5---|----------------------------------|
B--------------------------x--x---|----------------------------------|
G--------------------------5--3---|----------------------------------|
D--2-x-x--5-x-x--7-x-x-x-x--------|--2-x-x--5-x-x--7-----------------|
A--x-x-x--x-x-x--x-x-x-x-x--------|--x-x-x--x-x-x--x-----------------|
E--0-x-x--3-x-x--5-x-x-x-x--------|--0-x-x--3-x-x--5-----------------|


keyboard:
E-----10----9-----|----8----7-------|----10-----9----|----8----7-----|
B----8-----8------|---8------8------|---8------8-----|---8------8----|
G--9------9-------|--9--------9-----|--9------9------|--9--------9---|
D-----------------|-----------------|----------------|---------------|
A-----------------|-----------------|----------------|---------------|
E-----------------|-----------------|----------------|---------------|


E---------------------------------|----------------------------------|
B---------------------------------|----------------------------------|
G---------------------------------|----------------------------------|
D--2--5--7---x-x-x-x--------------|--2-x-x--5-x-x--7-x-x-x-x---------|
A--x--x--x---x-x-x-x--------------|--x-x-x--x-x-x--x-x-x-x-x---------|
E--0--3--5---x-x-x-x--------------|--0-x-x--3-x-x--5-x-x-x-x---------|

E---------------------------------|----------------------------------|
B---------------------------------|----------------------------------|
G---------------------------------|----------------------------------|
D--2-x-x--5-x-x--7----------------|--2-x-x--5-x-x--7-----------------|
A--x-x-x--x-x-x--x--5~6~7--5~6~7--|--x-x-x--x-x-x--x-----------------|
E--0-x-x--3-x-x--5----------------|--0-x-x--3-x-x--5-----------------|


E---------------------------------|----------------------------------|
B---------------------------------|----------------------------------|
G---------------------------------|----------------------------------|
D--2--5--7---x-x-x-x--------------|--2-x-x--5-x-x--7-x-x-x-x---------|
A--x--x--x---x-x-x-x--------------|--x-x-x--x-x-x--x-x-x-x-x---------|
E--0--3--5---x-x-x-x--------------|--0-x-x--3-x-x--5-x-x-x-x---------|

E---------------------------------|----------------------------------|
B---------------------------------|----------------------------------|
G---------------------------------|----------------------------------|
D--2-x-x--5-x-x--7----------------|--2-x-x--5-x-x--7-----------------|
A--x-x-x--x-x-x--x----------------|--x-x-x--x-x-x--x-----------------|
E--0-x-x--3-x-x--5----------------|--0-x-x--3-x-x--5-----------------|

ref:

   Em                G                 A                 C           x4
E--0--0--0--0-----|--3--3--3--3-----|-----------------|--0--0--0--0--0--|
B--0--0--0--0-----|--3--3--3--3-----|--2--2--2--2-----|--1--1--1--1--1--|
G--0--0--0--0-----|--0--0--0--0-----|--2--2--2--2-----|--0--0--0--0--0--|
D--2--2--2--2-----|--0--0--0--0-----|--2--2--2--2-----|--2--2--2--2--2--|
A--2--2--2--2-----|--2--2--2--2-----|--0--0--0--0-----|--3--3--3--3--3--|
E--0--0--0--0-----|--3--3--3--3-----|-----------------|-----------------|


outro:
E-----------------|
B-----------------|
G-----------------|
D--2--5--7--------|
A--x--x--x--------|
E--0--3--5--------|
            
Submit corrections

comments powered by Disqus
↑ Back to top | Jam Tabs for Balliamo Un Po. Lyrics for acoustic guitar and electric guitar. 1 Tablatures and chords are parodies/interpretations of the original songs. You may use it for private study, scholarship, research or language learning purposes only