>
 >
 >
Teri Yaad 1

Teri Yaad 1 Guitar Tabs

Jal - Teri Yaad 1 chords, tabs, tablatures, lyrics

Guitar lessons | Add/correct | Request | Top 50 tabs Artists:  A B C D E F G H I J K L M N O P Q R S T U V W X Y Z 0-9

Teri Yaad 1 Guitar Tabs – Jal

CD, Sheet music, Poster

Do you like Teri Yaad 1? Share with your friends now
ChordsChords v2Chords v3TabsTabs v2Ukulele
Song  = Teri yaad
Artist = Jal

e-7s12-12-12s8-8-8-10-8-7-|
B-------------------------|
G-------------------------|
D-------------------------|
A-------------------------|
E-------------------------|


e-7h8-7------------------10-|
B-------10-8-7-------7-8----|
G--------------9-9-9--------|
D---------------------------|
A---------------------------|
E---------------------------|

e-7s12-12-12s8-8-8-8-10-8-7-|
B---------------------------|
G---------------------------|
D---------------------------|
A---------------------------|
E---------------------------|


e-7h8-7------------------10-|
B-------10-8-7-------7-8----|
G--------------9-9-9--------|
D---------------------------|
A---------------------------|
E---------------------------|

Then Comes

e-------------------------|
B-------------------------|
G-----------------7-------|  x Few Times
D---9-9-7-9-9-7-9---9-7-9-|
A-7-----------------------|
E-------------------------|

den comes the song

e-----x-x-x-x-x-x----------|
B-----x-x-x-x-x-x----------|
G-----x-x-x-x-x-x----------|
D-----9-9-9-9-9-9----------|
A-----7-7-7-7-7-7----------|
E-----x-x-x-x-x-x----------|

 Teri Yaaad.......

e-x-x-x-x---x-x--x-x-x-x-|
B-x-x-x-x---x-x--x-x-x-x-|
G-x-x-x-x---x-x--x-x-x-x-|
D-9-9-9-9---5-5--5-5-5-5-|
A-7-7-7-7---3-3--3-3-3-3-|
E-x-x-x-x---x-x--x-x-x-x-|

 aye jub muj ko


e-x-x-x-x-x-x--x-x-x-x--x-|
B-x-x-x-x-x-x--x-x-x-x--x-|
G-x-x-x-x-x-x--x-x-x-x--x-|
D-5-5-5-5-5-5--7-7-7-7--7-|
A-3-3-3-3-3-3--5-5-5-5--5-|
E-x-x-x-x-x-x--x-x-x-x--x-|

  Mein laut aauoun ga


e-----x-x-x-x-x-x----------|
B-----x-x-x-x-x-x----------|
G-----x-x-x-x-x-x----------|
D-----9-9-9-9-9-9----------|
A-----7-7-7-7-7-7----------|
E-----x-x-x-x-x-x----------|

o bheegie raat,

e-x-x-x-x---x-x--x-x-x-x-|
B-x-x-x-x---x-x--x-x-x-x-|
G-x-x-x-x---x-x--x-x-x-x-|
D-9-9-9-9---5-5--5-5-5-5-|
A-7-7-7-7---3-3--3-3-3-3-|
E-x-x-x-x---x-x--x-x-x-x-|

aur barishoun mein

e-x-x-x-x-x-x--x-x-x-x--x-|
B-x-x-x-x-x-x--x-x-x-x--x-|
G-x-x-x-x-x-x--x-x-x-x--x-|
D-5-5-5-5-5-5--7-7-7-7--7-|
A-3-3-3-3-3-3--5-5-5-5--5-|
E-x-x-x-x-x-x--x-x-x-x--x-|

mein bheeg jaaaon ga


e-x-x--x----x-x-x-|
B-x-x--x----x-x-x-|
G-x-x--x----x-x-x-|
D-7-7--7----5-5-5-|
A-5-5--5----3-3-3-|
E-x-x--x----x-x-x-|

0ooooooh0000 h000 h0 h0000
*******************************************
Continue the Chords and play da intro again
*******************************************

e-7s12-12-12s8-8-8-10-8-7-|
B-------------------------|
G-------------------------|
D-------------------------|
A-------------------------|
E-------------------------|


e-7h8-7------------------10-|
B-------10-8-7-------7-8----|
G--------------9-9-9--------|
D---------------------------|
A---------------------------|
E---------------------------|

e-7s12-12-12s8-8-8-8-10-8-7-|
B---------------------------|
G---------------------------|
D---------------------------|
A---------------------------|
E---------------------------|


e-7h8-7------------------10-|
B-------10-8-7-------7-8----|
G--------------9-9-9--------|
D---------------------------|
A---------------------------|
E---------------------------|


e-----x-x-x-x-x-x----------|
B-----x-x-x-x-x-x----------|
G-----x-x-x-x-x-x----------|
D-----9-9-9-9-9-9----------|
A-----7-7-7-7-7-7----------|
E-----x-x-x-x-x-x----------|

 Fasaleee....

e-x-x-x-x---x-x--x-x-x-x-|
B-x-x-x-x---x-x--x-x-x-x-|
G-x-x-x-x---x-x--x-x-x-x-|
D-9-9-9-9---5-5--5-5-5-5-|
A-7-7-7-7---3-3--3-3-3-3-|
E-x-x-x-x---x-x--x-x-x-x-|

simat na sakey


e-----x-x-x-x-x-x----------|
B-----x-x-x-x-x-x----------|
G-----x-x-x-x-x-x----------|
D-----9-9-9-9-9-9----------|
A-----7-7-7-7-7-7----------|
E-----x-x-x-x-x-x----------|

rasteyy....

e-x-x-x-x---x-x--x-x-x-x-|
B-x-x-x-x---x-x--x-x-x-x-|
G-x-x-x-x---x-x--x-x-x-x-|
D-9-9-9-9---5-5--5-5-5-5-|
A-7-7-7-7---3-3--3-3-3-3-|
E-x-x-x-x---x-x--x-x-x-x-|

jo mit na sakey

e-x-x--x----x-x-x-|
B-x-x--x----x-x-x-|
G-x-x--x----x-x-x-|
D-5-5--5----7-7-7-|
A-3-3--3----5-5-5-|
E-x-x--x----x-x-x-|


 in fasaloun ko


e-x-x-x-x---x-x--x-x-x-x-|
B-x-x-x-x---x-x--x-x-x-x-|
G-x-x-x-x---x-x--x-x-x-x-|
D-7-7-7-7---2-2--2-2-2-2-|
A-5-5-5-5---x-x--x-x-x-x-|
E-x-x-x-x---x-x--x-x-x-x-|

simat na sakey

e-x-x--x----x-x-x-x-x-|
B-x-x--x----x-x-x-x-x-|
G-x-x--x----x-x-x-x-x-|
D-5-5--5----5-x-7-x-9-|
A-3-3--3----3-x-5-x-7-|
E-x-x--x----x-x-x-x-x-|


in rastoun pe..Chal NA hai!!!

e-----x-x-x-x-x-x----------|
B-----x-x-x-x-x-x----------|
G-----x-x-x-x-x-x----------|
D-----9-9-9-9-9-9----------|
A-----7-7-7-7-7-7----------|
E-----x-x-x-x-x-x----------|

yea dil ki bat.......

e-x-x-x-x---x-x--x-x-x-x-|
B-x-x-x-x---x-x--x-x-x-x-|
G-x-x-x-x---x-x--x-x-x-x-|
D-9-9-9-9---5-5--5-5-5-5-|
A-7-7-7-7---3-3--3-3-3-3-|
E-x-x-x-x---x-x--x-x-x-x-|

koi jane na janee


e-x-x-x-x-x-x--x-x-x-x--x-|
B-x-x-x-x-x-x--x-x-x-x--x-|
G-x-x-x-x-x-x--x-x-x-x--x-|
D-5-5-5-5-5-5--7-7-7-7--7-|
A-3-3-3-3-3-3--5-5-5-5--5-|
E-x-x-x-x-x-x--x-x-x-x--x-|

  Mein keh jaoun ga


e-----x-x-x-x-x-x----------|
B-----x-x-x-x-x-x----------|
G-----x-x-x-x-x-x----------|
D-----9-9-9-9-9-9----------|
A-----7-7-7-7-7-7----------|
E-----x-x-x-x-x-x----------|

 wo tere sath.......

e-x-x-x-x---x-x--x-x-x-x-|
B-x-x-x-x---x-x--x-x-x-x-|
G-x-x-x-x---x-x--x-x-x-x-|
D-9-9-9-9---5-5--5-5-5-5-|
A-7-7-7-7---3-3--3-3-3-3-|
E-x-x-x-x---x-x--x-x-x-x-|

 guzaray lumhey

e-x-x-x-x-x-x--x-x-x-x--x-|
B-x-x-x-x-x-x--x-x-x-x--x-|
G-x-x-x-x-x-x--x-x-x-x--x-|
D-5-5-5-5-5-5--7-7-7-7--7-|
A-3-3-3-3-3-3--5-5-5-5--5-|
E-x-x-x-x-x-x--x-x-x-x--x-|

na bhool paounga


e-x-x--x----x-x-x-|
B-x-x--x----x-x-x-|
G-x-x--x----x-x-x-|
D-7-7--7----5-5-5-|
A-5-5--5----3-3-3-|
E-x-x--x----x-x-x-|

0ooooooh0000 h000 h0 h0000

******************************************
And the rest of da song in da same pattern
******************************************

Phew~ im tired now :)





Comments


Popular Jal tabs & chords
Dil Hare Bass Tabs
Dil Hare Chords
Dil Hare 1 Chords
Raatein Chords
Yaqeen Chords
Dil Hare (Intro) Tabs
Lamhey 2 Tabs
Mahia Intro Tabs
Panchi Tabs
Ehsaas Ukulele


Song lyrics



↑ Back to top | Tablatures and chords are parodies/interpretations of the original songs. You may use it for private study, scholarship, research or language learning purposes only
© 2014 AZChords.com Contact us | Privacy policy | DMCA | Add/correct tabs | Request tabs | Top 50 tabs