>
 >
 >
Lamhey

Lamhey Guitar Tabs

Jal - Lamhey chords, tabs, tablatures, lyrics

Guitar lessons | Add/correct | Request | Top 50 tabs Artists:  A B C D E F G H I J K L M N O P Q R S T U V W X Y Z 0-9

Lamhey Guitar Tabs – Jal

CD, Sheet music, Poster

Do you like Lamhey? Share with your friends now
TabsTabs v2
**************************************
Song   - Lamhey
Artist - Jal
Album  - Aadat
**************************************
**************************************

Intro:

    |------------11-14---------------------------|e
    |------------------10-11-12~-----------------|B
    |---------------------------6-8-9------------|G
    |---------------------------------6-8-9------|D
    |---------------------------------------6----|A
    |--------------------------------------------|E

	Ho hoo hoooooooooooooo ho ho ho

    |------------11-14---------------------------|e
    |------------------10-11-12~-----------------|B
    |---------------------------6-8-9------------|G
    |---------------------------------6-8-9------|D
    |---------------------------------------6----|A
    |--------------------------------------------|E

	Ho ho hoooooooooooooooooo ho

    |------------11-14---------------------------|e
    |------------------10-11-12~-----------------|B
    |---------------------------6-8-9------------|G
    |---------------------------------6-8-9------|D
    |---------------------------------------6----|A
    |--------------------------------------------|E

	Ho ho ho ho ho ho ho ho ho

    |---11-12-14---------------------------------|e
    |------------10-11-12~10-11-12--10-11-12-----|B
    |--------------------------------------------|G
    |--------------------------------------------|D
    |--------------------------------------------|A
    |--------------------------------------------|E

	Ho ho ho ho ho ho ho ho ho ho hooooooooo ho

    |---11-12-14---------------------------------|e
    |------------10-11-12~10-11-12--10-11-12-----|B
    |--------------------------------------------|G
    |--------------------------------------------|D
    |--------------------------------------------|A
    |--------------------------------------------|E

Stanza1:
 The chords of Stanza1 are played with distortion on one guitar and plucked on another.
 The plucking pattern of all the chords(G#m,F# and E) is the same and goes like this -

        |-------5------------|e
        |-----6-------2------|B
        |---7-------3--------|G
        |---------4-----1----|D
        |--------------------|A
        |--------------------|E

 For exact sound, play G#m on 11th position, F# on 9th position and E on 7th position.

	G#m
	Woh lamhey ... Woh raatein
	        F#
	Koi naa jaane ... Thi kaisi baatein ... woooooo
	E
	Barsaatein
	                  F#
	Woh bheegi bheegi yaadein
	                  E
	Woh bheegi bheegi yaadein

Stanza2:
  Strum heavily on Strings 1,2,3 and 4.

        G#m
	Naa main jaanu
	       F#
	Naa tu jaane ... aaaaaaa
		      E
	Kaisa hai yeh alum
		F#
	Koi naa jaane

Bridge1:
  Strum heavily on Strings 1,2,3 and 4.

		  G#m
	Phir kyun hai yeh tanhayee

	Kaisi hai yeh ruswaaein
	          E
	Gumm ho gaye kyun
	      F#
	Kho gaye hum

	Woh Lamhey

    |---11-12-14---------------------------------|e
    |------------10-11-12~10-11-12--10-11-12-----|B
    |--------------------------------------------|G
    |--------------------------------------------|D
    |--------------------------------------------|A
    |--------------------------------------------|E

    |---11-12-14---------------------------------|e
    |------------10-11-12~10-11-12--10-11-12-----|B
    |--------------------------------------------|G
    |--------------------------------------------|D
    |--------------------------------------------|A
    |--------------------------------------------|E

Stanza3:
 Stanza3 is basically on the drums and bass with very light arpeegos on the chords given 
    The plucking pattern of all the chords(G#m,F# and E) is the same and goes like this -

    |-------------------|e
    |---6------3--------|B
    |-------------------|G
    |-----5------2------|D
    |-------4------1----|A
    |-------------------|E

   For exact sound, play G#m on 5th position, F# on 3th position and E on nut position.

	G#m
	Saagar ki in lehron se
	F#
	Gehra hain mera pyaar
	E
	Sehraon ki hawaaon mein
	F#
	Kaise aayegi bahar

Bridge2:
 The chords of Bridge2 are played with distortion on one guitar and plucked on another.
 The plucking pattern of all the chords(G#m,F# and E) is the same and goes like this -

        |-------5------------|e
        |-----6-------2------|B
        |---7-------3--------|G
        |---------4-----1----|D
        |--------------------|A
        |--------------------|E

   For exact sound, play G#m on 11th position, F# on 9th position and E on 7th position.

			  G#m
	Phir kyun hai yeh tanhayee
	              F#
	Kaisi hai yeh ruswaaein
	          E
	Gumm ho gaye kyun
	      F#
	Kho gaye hum

Stanza4:
	G#m
	Woh lamhey ... Woh raatein
	        F#
	Koi naa jaane ... Thi kaisi baatein ... woooooo
	E
	Barsaatein
	                  F#
	Woh bheegi bheegi yaadein
	                  E
	Woh bheegi bheegi yaadein


Guitar Solo:
 The notes seperated by an underscore are to be played together and the notes seperated 
a ~ are   to be reached by gliding.

    |---2-4-6-4----------------------------------------|e
    |-----------4_4-2-2_2-4-4_4-2-2_2-4-4_4-2-2_2-4----|B
    |--------------------------------------------------|G
    |--------------------------------------------------|D
    |--------------------------------------------------|A
    |--------------------------------------------------|E

    |---11-9-11_12_11-11-12~9~7-6-4~2-4-6_4-6-7-9~7-6-4----------------------------------------|e
    |---------------------------------------------------4_4-2-2_2-4-4_4-2-2_2-4-4_4-2-2_2-4----|B
    |------------------------------------------------------------------------------------------|G
    |------------------------------------------------------------------------------------------|D
    |------------------------------------------------------------------------------------------|A
    |------------------------------------------------------------------------------------------|E

Stanza4:
 Stanza4 is basically on the drums and bass with very light arpeego on G#m.

	Aandhi hoo ... ya tufan hoo
	Mere maan mein rahe tu sada
	Koi aapna ho ya paraya hoo
	Usey dhundu main kaha

Bridge3:
  Play he chords given with very light distortion on one guitar and the tabs on another 
the       background.

			  G#m
	Phir kyun hai yeh tanhayee
	              F#
	Kaisi hai yeh ruswaaein
	          E
	Gumm ho gaye kyun
	      F#
	Kho gaye hum

    |---11-12-14-------------------------------------------------------------|e
    |------------10-11-12~10-11-12--10-11-12-10-11-12~10-11-12--10-11-12-----|B
    |------------------------------------------------------------------------|G
    |------------------------------------------------------------------------|D
    |------------------------------------------------------------------------|A
    |------------------------------------------------------------------------|E

Stanza5:
  Play he chords given with very light distortion.

	G#m
	Woh lamhey ... Woh raatein
	        F#
	Koi naa jaane ... Thi kaisi baatein ... woooooo
	E
	Barsaatein
	                  F#
	Woh bheegi bheegi yaadein
	                  E
	Woh bheegi bheegi yaadein

Outro:
  Keep on changing the chords as in Stanza1 eith very light distortion.

**************************************





Comments


Popular Jal tabs & chords
Alvida Chords
Ik Din Ayay Ga Chords
Raatein Chords
Sajni 1 Chords
Sajni 2 Chords
Teri Yaad Chords
Dil Hare (Solo) Tabs
Humain Itna Pyar Na Karo Tabs
Humein Itna Pyar Ukulele
Woh Lamhey Ukulele


Song lyrics



↑ Back to top | Tablatures and chords are parodies/interpretations of the original songs. You may use it for private study, scholarship, research or language learning purposes only
© 2014 AZChords.com Contact us | Privacy policy | DMCA | Add/correct tabs | Request tabs | Top 50 tabs