>
 >
 >
Lamhe

Lamhe Guitar Tabs

Jal - Lamhe chords, tabs, tablatures, lyrics

Guitar lessons | Add/correct | Request | Top 50 tabs Artists:  A B C D E F G H I J K L M N O P Q R S T U V W X Y Z 0-9

Lamhe Guitar Tabs – Jal

CD, Sheet music, Poster

Do you like Lamhe? Share with your friends now
Tabs
e|------------------------------------------14-11--|
B|-----------------------------12---11-9-----------|
G|---------------9---8-6--\------------------------|
D|----9---8-6--------------------------------------|
A|--6---6------6---6---------9----9-------9--------|
E|-------------------------------------------------|

ho ho hooooo                                   
e|-----------------------------------------------14-11--|
B|----------------------------------12---11-9-----------|
G|--------------------9---8-6--\------------------------|
D|---------9---8-6--------------------------------------|
A|--11/6-6---6------6---6---------9----9-------9--------|
E|------------------------------------------------------|

ho ho oooo ooo                                        hoo ho ho
e|-----------------------------------------------14-11-----|
B|----------------------------------12---11-9----------12--|
G|--------------------9---8-6--\---------------------------|
D|---------9---8-6-----------------------------------------|
A|--11/6-6---6------6---6---------9----9-------9-----------|
E|---------------------------------------------------------|

						 ho ho hhhooo
e|--------------------------------------------14----12----11-----|
B|----12---11-9-----12---11-9s11-----12---11-----11----11----11--|
G|--9----9--------9----9-----------9----9------------------------|
D|---------------------------------------------------------------|
A|---------------------------------------------------------------|
E|---------------------------------------------------------------|

						 ho ho hhhooo
e|--------------------------------------------14----12----11-----|
B|----12---11-9-----12---11-9s11-----12---11-----11----11----11--|
G|--9----9--------9----9-----------9----9------------------------|
D|---------------------------------------------------------------|
A|---------------------------------------------------------------|
E|---------------------------------------------------------------|


guitar 1 (with distortion)
woh lamhe.......  na jaanay......  woh barsaatein
e|-----------------------------------------|
B|-----------------------------------------|
G|-----------------------------------------|
D|--6-----------------4-----------------2--|
A|--6-----------------4-----------------2--|
E|--4-----------------2-----------------0--|

wo bheegi bheegi yaadein..wo bheegi bheegi yaadein
e|--------------------------------------------|
B|--------------------------------------------|
G|--------------------------------------------|
D|---------------6-------------------------2--|
A|---------------6-------------------------2--|
E|---------------4-------------------------0--|


while guitar 1 is playin this...guitar 2 plays this: (lissen 2 the song fer the timing)
e|--------14--------14--------16--------16--------16--|
B|--11-11-----11-11-----12-12-----12-12-----12-12-----|

e|--------14--------14--------16--------16--------16--|
B|--11-11-----11-11-----12-12-----12-12-----12-12-----|

e|--------14--------14--------14~--|
B|--11-11-----11-11-----11-11------|



then...there r 3 basic chords played thru out the song..

pattern for the verses n bridges:
na mein jaanon.... na tu jaanain.kaisa hai yeh aalam..koi na jaanay
e|------4-----------------2--------------------0-------------2--|
B|------4-----------------2--------------------0-------------2--|
G|------4-----------------3--------------------1-------------3--|
D|------6-----------------4--------------------2-------------4--|
A|------6-----------------4--------------------2-------------4--|
E|------4-----------------2--------------------0-------------2--|


pattern for the chorus:
woh lamhe......koi na jaanay...wo barsaatein..bheegi yaadein..yaadein
e|--4-----------------2-----------0------------------2--------0--|
B|--4-----------------2-----------0------------------2--------0--|
G|--4-----------------3-----------1------------------3--------1--|
D|--6-----------------4-----------2------------------4--------2--|
A|--6-----------------4-----------2------------------4--------2--|
E|--4-----------------2-----------0------------------2--------0--|


then comes a solo:

e|------------------------------------------------|
B|--------------------------------------9-11-9-7--|
G|--8-6-6-8-4-4-8-6-6-8-4-4-8-6-6-8-4-4-----------|
D|------------------------------------------------|
A|------------------------------------------------|
E|------------------------------------------------|

e|---------------------------------------------------------------------------9-11s12-11-11h12p11-9s11--|
B|--------------------------------------9-11-12-14-12-11-9s11-9s7--9-9-11-12---------------------------|
G|--8-6-6-8-4-4-8-6-6-8-4-4-8-6-6-8-4-4----------------------------------------------------------------|
D|-----------------------------------------------------------------------------------------------------|
A|-----------------------------------------------------------------------------------------------------|
E|-----------------------------------------------------------------------------------------------------|


n then the rest of the songs continues with the same patterns........

near the ending...this lead is played on distortion:

e|--x--x--x--x--x--|
B|--x--x--x--x--x--|
G|--x--x--x--x--x--|
D|--9--8--6--4--2--|
A|--7--6--4--2--0--|
E|--x--x--x--x--x--|

now..tht wasn't too hard was it? :D



- AyeN





Comments


Popular Jal tabs & chords
Yaqeen Bass Tabs
Ehsaas Chords
Mahia Chords
Pe Jaon Chords
Bikhra Hon Main 1 Tabs
Dil Hare (Solo) Tabs
Humein Itna Pyar Na Karo Tabs
Mana Bikhra Hoon Main Tabs
Lamhay Ukulele
Pi Jaon Ukulele


Song lyrics



↑ Back to top | Tablatures and chords are parodies/interpretations of the original songs. You may use it for private study, scholarship, research or language learning purposes only
© 2014 AZChords.com Contact us | Privacy policy | DMCA | Add/correct tabs | Request tabs | Top 50 tabs