» » »

Ik Din Aye Ga Tabs (ver.1)

Artists:  A B C D E F G H I J K L M N O P Q R S T U V W X Y Z # 

Ik Din Aye Ga Tabs (ver.1)

Jal
Rating:
4/5 (5 votes)

Hard to play? Try these video lessons and learn fast.
                IT'S AN EASY SONG TO PLAY.This one sounds almost 100% correct.Check this out!


intro:

E----------0-----------0-----------------   -----|
B---------0--0------------0---------------    ---|
G-------9-----9--------9---9--------------    ---|
D-----9--------------9--------------------    ---|
A---7-------------------------------------    ---|
E-0--------------9------------------------    ---|
                                               |
                                               =========   x 2
E----------0-------------0---------------    ----|
B---------0---0------------0--------------    ---|
G-------2-------2------------4------------    ---|
D-----2----------------4-------4----------    ---|
A---0----------------0--------------------    ---|
E-0----------------0----------------------   ----|


E----------------------------------------|
B----------------------------------------|
G-------5-4-4-5-4-4-5-4-4-5-4------------|
D-----5----------------------------------|
A---0------------------------------------|
E-5--------------------------------------|

NOW THE SONG COMES IN:

E----------0-----------0-------------------|
B---------0--0------------0----------------|
G-------9-----9--------9---9---------------|
D-----9--------------9---------------------|
A---7--------------------------------------|
E-0--------------9-------------------------|
Teri Annkhein

E----------0-------------0-----------------|
B---------0---0------------0---------------|
G-------2-------2------------4-------------|
D-----2----------------4-------4-----------|
A---0----------------0---------------------|
E-0----------------0-----------------------|
abb houn gi na kabhi Num

E----------0-----------0-------------------|
B---------0--0------------0----------------|
G-------9-----9--------9---9---------------|
D-----9--------------9---------------------|
A---7--------------------------------------|
E-0--------------9-------------------------|
Tu jo Dekh le

E----------0-------------0-----------------|
B---------0---0------------0---------------|
G-------2-------2------------4-------------|
D-----2----------------4-------4-----------|
A---0----------------0---------------------|
E-0----------------0-----------------------|
Tu bhula doun mein Sare Ghum

E----------0-----------0-------------------|
B---------0--0------------0----------------|
G-------9-----9--------9---9---------------|
D-----9--------------9---------------------|
A---7--------------------------------------|
E-0--------------9-------------------------|
Tu jo chahey tu

E----------0-------------0-----------------|
B---------0---0------------0---------------|
G-------2-------2------------4-------------|
D-----2----------------4-------4-----------|
A---0----------------0---------------------|
E-0----------------0-----------------------|
Badle ga Mosam


E----------------------------------------|
B----------------------------------------|
G-------5-4-4-5-4-4-5-4-4-5-4------------|
D-----5----------------------------------|
A---0------------------------------------|
E-5--------------------------------------|


E----------0-----------0------------------|
B---------0--0------------0---------------|
G-------9-----9--------9---9--------------|
D-----9--------------9--------------------|
A---7-------------------------------------|
E-0--------------9------------------------|
yea jo pal hain

E----------0-------------0-----------------|
B---------0---0------------0---------------|
G-------2-------2------------4-------------|
D-----2----------------4-------4-----------|
A---0----------------0---------------------|
E-0----------------0-----------------------|
inhein khushiyoun se bher lo tum


E----------0-----------0-------------------|
B---------0--0------------0----------------|
G-------9-----9--------9---9---------------|
D-----9--------------9---------------------|
A---7--------------------------------------|
E-0--------------9-------------------------|
wo beete din

E----------0-------------0-----------------|
B---------0---0------------0---------------|
G-------2-------2------------4-------------|
D-----2----------------4-------4-----------|
A---0----------------0---------------------|
E-0----------------0-----------------------|
unhein yaad phir se ker lo tum


E----------0-----------0-------------------|
B---------0--0------------0----------------|
G-------9-----9--------9---9---------------|
D-----9--------------9---------------------|
A---7--------------------------------------|
E-0--------------9-------------------------|
Tu jo chahey tu

E----------0-------------0-----------------|
B---------0---0------------0---------------|
G-------2-------2------------4-------------|
D-----2----------------4-------4-----------|
A---0----------------0---------------------|
E-0----------------0-----------------------|
Badle ga Mosam


E----------------------------------------|
B----------------------------------------|
G-------5-4-4-5-4-4-5-4-4-5-4------------|
D-----5----------------------------------|
A---0------------------------------------|
E-5--------------------------------------|

E-------------------------------------------|
B-------------------------------------------|
G-9--9-9-9----------------------------------|
D-9--9-9-9----------------------------------|
A-7--7-7-7----------------------------------|
E-------------------------------------------|
yea dil tu rona nahin

E-------------------------------------------|
B-------------------------------------------|
G-9-9-9--9----------------------------------|
D-9-9-9--9----------------------------------|
A-x-x-x--x----------------------------------|
E-9-9-9--9----------------------------------|
yea khuwab adhore nahin

E-------------------------------------------|
B-------------------------------------------|
G-9--9-9-9----------------------------------|
D-9--9-9-9----------------------------------|
A-7--7-7-7----------------------------------|
E-------------------------------------------|
yea arman sare tere


E-------------------------------------------|
B-------------------------------------------|
G-9-9-9--9----------------------------------|
D-9-9-9--9----------------------------------|
A-x-x-x--x----------------------------------|
E-9-9-9--9----------------------------------|
houn gey pore kabhi


Ex-x-x--x-----------------------------------|
B-x-x-x--x----------------------------------|
G-2-2-2--2----------------------------------|
D-2-2-2--2----------------------------------|
A-x-x-x--x----------------------------------|
E-x-x-x--x----------------------------------|
aik din aaye ga

E-------------------------------------------|
B-------------------------------------------|
G-4-4-4--4----------------------------------|
D-4-4-4--4----------------------------------|
A-2-2-2--2----------------------------------|
E-x-x-x--x----------------------------------|
tu youn gaye ga

E-------------------------------------------|
B-------------------------------------------|
G-9--9-9-9----------------------------------|
D-9--9-9-9----------------------------------|
A-7--7-7-7----------------------------------|
E-------------------------------------------|
ho ho hooo

E-------------------------------------------|
B-------------------------------------------|
G-9-9-9--9----------------------------------|
D-9-9-9--9----------------------------------|
A-x-x-x--x----------------------------------|
E-9-9-9--9----------------------------------|
ho ho hoooo


E-------------------------------------------|
B-------------------------------------------|
G-9--9-9-9----------------------------------|
D-9--9-9-9----------------------------------|
A-7--7-7-7----------------------------------|
E-------------------------------------------|
ho ho hoooo

E-------------------------------------------|
B-------------------------------------------|
G-9-9-9--9----------------------------------|
D-9-9-9--9----------------------------------|
A-x-x-x--x----------------------------------|
E-9-9-9--9----------------------------------|
ho ho hoooo

THE REST OF THE SONG GOES ON IN SAME MANNER.DUE TO LACK OF TIME I'M NOT GIVIN
THE SOLO BUT NJOY NEWAY!!!!!!!
            
Hard to play? Try these video lessons and learn fast. | Correct




comments powered by Disqus
↑ Back to top | Tablatures and chords are parodies/interpretations of the original songs. You may use it for private study, scholarship, research or language learning purposes only