» » »

Jal, Dil Hare Tabs (ver.4)

Artists:  A B C D E F G H I J K L M N O P Q R S T U V W X Y Z # 

Dil Hare Tabs (ver.4)

Jal Tabs
 Rating:
4.7/5 (14 votes)
Dil Hare lessons Tabs too difficult? Try these video lessons and learn fast
1
                Hey guys, My name is Zaid. This is my very first tablature I have come up with. The song 
have tabbed is really easy and doesn't require a lot of practice to play. So here it is:

These are the chords that will be found in the song...

     G   Gsus4/E,  Gsus2/E,
e ---3-----3---------3-----|
B ---3-----3---------3-----|
G ---0-----0---------0-----|
D ---0-----2---------2-----|
A ---2-----3---------2-----|
E ---3-----X---------X-----|

Intro:

------3-2-2-2-3h5-3--3-2-2-2-3h5-3--3-2-2-2-3s5-|
--3-3---------------3--------------3------------|
------------------------------------------------|
------------------------------------------------|
------------------------------------------------|
------------------------------------------------|

--3-3-3-3-7-3-8-8-8-8s10-3-3-3-3-7-3-8-8-8-8-8-8-|
-------------------------------------------------|
-------------------------------------------------|
-------------------------------------------------|
-------------------------------------------------|
-------------------------------------------------|

------3-2-2-2-3h5-3-----7-5-2-3--7-5-5-5-2-3----|
--3-3---------------3-3---------3---------------|
------------------------------------------------|
------------------------------------------------|
------------------------------------------------|
------------------------------------------------|

--3-3-3-3-7-3-8-8-8-8s10-3-3-3-3-7-3-8-8-8-8-8-8-|
-------------------------------------------------|
-------------------------------------------------|
-------------------------------------------------|
-------------------------------------------------|
-------------------------------------------------|

------3-2-2-2-3h5-3--|
--3-3----------------|
---------------------|
---------------------|
---------------------|
---------------------|

And then play the G chord once...

-Silence-

Strum the G chord for a bit...

Next:

G Gsus2/E, Gsus4/E, Gsus2/E,
                              >>> x2
G Gsus2/E, Gsus4/E, Gsus4/E,

G                          Gsus2/E,
Aankhon se jabhee ho teree ankhain judaa
G                      Gsus2/E,
Mann se jabhee ho tera mann khafa
        Gsus4/E,           Gsus2/E,
Tou jee pukaaraa, pukaaray tujhe
        Gsus4/E,         Gsus2/E,
Tou mann ghabrayay, bulayay tujhe
          G             Gsus2/E,
Ke dil haaray, pukaaray tujhe
         Gsus4/E,     Gsus2/E,
Mann jaa ray, man*lay mujhe
         G             Gsus2/E,
Sunh pyaaray, lagaalay galay
        Gsus4/E,           Gsus2/E,
Kho jaa ray, tou gaa lay sang ray


G Gsus2/E, Gsus4/E, Gsus2/E,
                              >>> x2
G Gsus2/E, Gsus4/E, Gsus4/E,

G                     Gsus2/E,
Teray bina, zindagi lagay saza
G                         Gsus2/E,
Tera saath ho, yeh saza lagay jaza
             Gsus4/E,          Gsus2/E,
Tou barthtay jayay, woh rastay saaray
       Gsus4/E,             Gsus2/E,
Duniya Peechay,tau hum hain agay
          G             Gsus2/E,
Ke dil haaray, pukaaray tujhe
         Gsus4/E,     Gsus2/E,
Mann jaa ray, man*lay mujhe
         G             Gsus2/E,
Sunh pyaaray, lagaalay galay
        Gsus4/E,           Gsus2/E,
Kho jaa ray, tou gaa lay sang ray

(Alaap)
G Gsus2/E, Gsus4/E, Gsus2/E,
(Alaap)
G Gsus2/E, Gsus4/E, Gsus2/E,

Solo (which I don't know cuz it's a lil complicated)

G
Dil Haaray Pukaaray
        Gsus2/E,
Mann Jaaray Manaalay
G
Dil Haaray Pukaaray
        Gsus2/E,
Mann Jaaray Manaalay
          G
Ke Dil Haarayyyyy...

THE END (I hope it's good enough!)
            
Submit corrections

comments powered by Disqus
↑ Back to top | Jal Tabs for Dil Hare. Lyrics for acoustic guitar and electric guitar. 1 Tablatures and chords are parodies/interpretations of the original songs. You may use it for private study, scholarship, research or language learning purposes only