>
 >
 >
Aik Din Aye Ga

Aik Din Aye Ga Guitar Tabs

Jal - Aik Din Aye Ga chords, tabs, tablatures, lyrics

Guitar lessons | Add/correct | Request | Top 50 tabs Artists:  A B C D E F G H I J K L M N O P Q R S T U V W X Y Z 0-9

Aik Din Aye Ga Guitar Tabs – Jal

CD, Sheet music, Poster

Do you like Aik Din Aye Ga? Share with your friends now
ChordsTabsUkulele
Song - Aik DIn Aye ga
Band - Jal

e-----------0-----------0------------------|
B---------0--0------------0----------------|
G-------9-----9-------------9--------------|
D-----9--------------9--------9------------|
A---7--------------0-----------------------|
E-0--------------9-------------------------|


e-----------0-------------0----------------|
B---------0---0------------0---------------|
G-------2-------2------------4-------------|
D-----2----------------4-------4-----------|
A---0----------------0---------------------|
E-0----------------0-----------------------|

e-----------0-----------0------------------|
B---------0--0------------0----------------|
G-------9-----9-------------9--------------|
D-----9--------------9--------9------------|
A---7--------------0-----------------------|
E-0--------------9-------------------------|


e-----------0-------------0----------------|
B---------0---0------------0---------------|
G-------2-------2------------4-------------|
D-----2----------------4-------4-----------|
A---0----------------0---------------------|
E-0----------------0-----------------------|

e---------------------------------------|
B---------------------------------------|
G-------5-4-4-5-4-4-5-4-4-5-4-----------|
D-----5---------------------------------|
A---0-----------------------------------|
E-5-------------------------------------|

e-----------0-----------0------------------|
B---------0--0------------0----------------|
G-------9-----9-------------9--------------|
D-----9--------------9--------9------------|
A---7--------------0-----------------------|
E-0--------------9-------------------------|
  Teri Annkhein

e-----------0-------------0----------------|
B---------0---0------------0---------------|
G-------2-------2------------4-------------|
D-----2----------------4-------4-----------|
A---0----------------0---------------------|
E-0----------------0-----------------------|
  abb houn gi na kabhi Num


e-----------0-----------0------------------|
B---------0--0------------0----------------|
G-------9-----9-------------9--------------|
D-----9--------------9--------9------------|
A---7--------------0-----------------------|
E-0--------------9-------------------------|
  Tu jo Dekh le

e-----------0-------------0----------------|
B---------0---0------------0---------------|
G-------2-------2------------4-------------|
D-----2----------------4-------4-----------|
A---0----------------0---------------------|
E-0----------------0-----------------------|
  Tu bhula doun mein Sare Ghum

e-----------0-----------0------------------|
B---------0--0------------0----------------|
G-------9-----9-------------9--------------|
D-----9--------------9--------9------------|
A---7--------------0-----------------------|
E-0--------------9-------------------------|
  Tu jo chahey tu

e-----------0-------------0----------------|
B---------0---0------------0---------------|
G-------2-------2------------4-------------|
D-----2----------------4-------4-----------|
A---0----------------0---------------------|
E-0----------------0-----------------------|
  Badle ga Mosam


e---------------------------------------|
B---------------------------------------|
G-------5-4-4-5-4-4-5-4-4-5-4-----------|
D-----5---------------------------------|
A---0-----------------------------------|
E-5-------------------------------------|


-----------0-----------0-------------------|
B---------0--0------------0----------------|
G-------9-----9-------------9--------------|
D-----9--------------9--------9------------|
A---7--------------0-----------------------|
E-0--------------9-------------------------|
  yea jo pal hain

e-----------0-------------0----------------|
B---------0---0------------0---------------|
G-------2-------2------------4-------------|
D-----2----------------4-------4-----------|
A---0----------------0---------------------|
E-0----------------0-----------------------|
  inhein khushiyoun se bher lo tum


e-----------0-----------0------------------|
B---------0--0------------0----------------|
G-------9-----9-------------9--------------|
D-----9--------------9--------9------------|
A---7--------------0-----------------------|
E-0--------------9-------------------------|
 wo beete din

e-----------0-------------0----------------|
B---------0---0------------0---------------|
G-------2-------2------------4-------------|
D-----2----------------4-------4-----------|
A---0----------------0---------------------|
E-0----------------0-----------------------|
  unhein yaad phir se ker lo tum

e-----------0-----------0------------------|
B---------0--0------------0----------------|
G-------9-----9-------------9--------------|
D-----9--------------9--------9------------|
A---7--------------0-----------------------|
E-0--------------9-------------------------|
  Tu jo chahey tu

e-----------0-------------0----------------|
B---------0---0------------0---------------|
G-------2-------2------------4-------------|
D-----2----------------4-------4-----------|
A---0----------------0---------------------|
E-0----------------0-----------------------|
  Badle ga Mosam


e---------------------------------------|
B---------------------------------------|
G-------5-4-4-5-4-4-5-4-4-5-4-----------|
D-----5---------------------------------|
A---0-----------------------------------|
E-5-------------------------------------|

e-x--x-x-x---------------------------------|
B-x--x-x-x---------------------------------|
G-9--9-9-9---------------------------------|
D-9--9-9-9---------------------------------|
A-7--7-7-7---------------------------------|
E-x--x-x-x---------------------------------|
yea dil tu rona nahin

e-x-x-x--x----------------------------------|
B-x-x-x--x----------------------------------|
G-9-9-9--9----------------------------------|
D-9-9-9--9----------------------------------|
A-x-x-x--x----------------------------------|
E-9-9-9--9----------------------------------|
 yea khuwab adhore nahin

e-x--x-x-x---------------------------------|
B-x--x-x-x---------------------------------|
G-9--9-9-9---------------------------------|
D-9--9-9-9---------------------------------|
A-7--7-7-7---------------------------------|
E-x--x-x-x---------------------------------|
 yea arman sare tere


e-x-x-x--x----------------------------------|
B-x-x-x--x----------------------------------|
G-9-9-9--9----------------------------------|
D-9-9-9--9----------------------------------|
A-x-x-x--x----------------------------------|
E-9-9-9--9----------------------------------|
 houn gey pore kabhi


e-x-x-x--x----------------------------------|
B-x-x-x--x----------------------------------|
G-2-2-2--2----------------------------------|
D-2-2-2--2----------------------------------|
A-x-x-x--x----------------------------------|
E-x-x-x--x----------------------------------|
aik din aaye ga

e-x-x-x--x----------------------------------|
B-x-x-x--x----------------------------------|
G-4-4-4--4----------------------------------|
D-4-4-4--4----------------------------------|
A-2-2-2--2----------------------------------|
E-x-x-x--x----------------------------------|
 tu youn gaye ga

e-x--x-x-x---------------------------------|
B-x--x-x-x---------------------------------|
G-9--9-9-9---------------------------------|
D-9--9-9-9---------------------------------|
A-7--7-7-7---------------------------------|
E-x--x-x-x---------------------------------|
ho ho ho hoooooooooooo hooooooo ho hooooo

e-x-x-x--x----------------------------------|
B-x-x-x--x----------------------------------|
G-9-9-9--9----------------------------------|
D-9-9-9--9----------------------------------|
A-x-x-x--x----------------------------------|
E-9-9-9--9----------------------------------|
ho ho ho hooooooooooooooooooooooooooooooooo

e-x--x-x-x---------------------------------|
B-x--x-x-x---------------------------------|
G-9--9-9-9---------------------------------|
D-9--9-9-9---------------------------------|
A-7--7-7-7---------------------------------|
E-x--x-x-x---------------------------------|
ho ho ho hoooooooooooo hooooooo ho hooooo

e-x-x-x--x----------------------------------|
B-x-x-x--x----------------------------------|
G-9-9-9--9----------------------------------|
D-9-9-9--9----------------------------------|
A-x-x-x--x----------------------------------|
E-9-9-9--9----------------------------------|
ho ho ho hooooooooooooooooooooooooooooooooo





Comments


Popular Jal tabs & chords
Dil Hare 1 Chords
Teri Yaad 1 Chords
Teri Yaad 2 Chords
Woh Lamhay Chords
Addat 3 Tabs
Bikhra Houn Mein Tabs
Dil Haray Tabs
Rangon Mein 1 Tabs
Aik Din Aye Ga Ukulele
Bheegi Yaadien Ukulele


Song lyrics



↑ Back to top | Tablatures and chords are parodies/interpretations of the original songs. You may use it for private study, scholarship, research or language learning purposes only
© 2014 AZChords.com Contact us | Privacy policy | DMCA | Add/correct tabs | Request tabs | Top 50 tabs