>
 >
Steal My Kisses

Steal My Kisses Guitar Tabs

Jake Owen - Steal My Kisses chords, tabs, tablatures, lyrics

Guitar lessons | Add/correct | Request | Top 50 tabs Artists:  A B C D E F G H I J K L M N O P Q R S T U V W X Y Z 0-9

Steal My Kisses Guitar Tabs – Jake Owen

CD, Sheet music, Poster

Do you like Steal My Kisses? Share with your friends now
Tabs
Jake Owen, Steal My Kisses


e|--7-----------------------7---7---7----8----8--8----10-------|
B|--8--------3-------------------------------------------------|
G|--7----2s4---4-4-2-0---s7---7---7---s9---9-9--9-s11----11----|
D|---------------------0---------------------------------------|
A|-------------------------------------------------------------|
E|-------------------------------------------------------------|

e|-------------------------------7-----7------8---8--8----10------------------------------------|
B|-10h12-10----12-12-12-10-----------------------------------------11h12------------------------|
G|----------12-------------12-s7---7-7---7-s9---99--9-s11----11----------12-------9p7-----------|
D|--------------------------------------------------------------------------12h13-----9p7-------|
A|----------------------------------------------------------------------------------------9h10--|
E|----------------------------------------------------------------------------------------------|



(verse)
G                              C
I pulled in the Nashville, Tennessee
        D                                G
But you wouldn't even come around to see me
G                                   C
Since you're headed up there to Carolina
          D                       G
Well, you know I'd be right there behind you


(Chorus)
G                                           C
Cause I always have to steal my kisses from you
D                                   G
Always have to steal my kisses from you.
         G                                  C
Said, I always have to steal my kisses from you
               D                                  G
Said, I-I-I've always got to steal my kisses from you.


(verse)
G                                      C
Now, I love to feel that warm Southern rain,
        D                                      G
Just to hear it fall is the sweetest sound'in thang.
G                                          C
Had to see it fall on your simple, country dress
     D                    G
It's heaven to me, I must confess.


(Chorus)
G                                           C
Cause I always have to steal my kisses from you
D                                   G
Always have to steal my kisses from you.
        G                                    C
Said, I always have to steal my kisses from you
                D                                  G
Said, I-I-I've always got to steal my kisses from you. Break it down one time baby.


(Instrumental)
e|-----------------------------------------3-|
B|-1s3-3-3-1-1-----------------------------3-|
G|-2s4-4-4-2-2-4-4-4p3p2-------------------4-|
D|-------------5-5-------5-0-2-5-2-0-------5-|
A|-----------------------------------2-0---5-|
E|---------------------------------------3---|

e|-s7-10-7-10-7-12p10----10-10----12b13-12b13r12-12-10-------------|
B|--------------------12-------12----------------------13-11-13----|
G|--------------------------------------------------------------12-|
D|-----------------------------------------------------------------|
A|-----------------------------------------------------------------|
E|-----------------------------------------------------------------|

e|----------------------------------------------------------------------------|
B|-11-11b-11-11b-11-11b-11b-11b-----------------------------------------------|
G|-12-12b-12-12b-12-12b-12b-12b-----------------------------------------------|
D|-----------------------------12p11p10-12p11p10-12p11p10-7h8-----------------|
A|------------------------------------------------------------10----8----8h10-|
E|---------------------------------------------------------------10---10------|


G                                C
I've been hanging around you for days,
             D                                   G
But when I'm leaning in, you just turn your head away.
G                          C
No, I know you didn't mean that
         D
She said I love the way you think
                       G
but I hate the way you act.



(no chord-strum muted guitar)
Cause I always have to steal my kisses from you

I Always have to steal my kisses from you.

e|----------------------7------------------------------------10-|
B|-----3--------------------------------------------------------|
G|s4-4---4p2---------s7----------------------------------7s9----|
D|-----------5-2--5---------------------------------------------|
A|---------------5----------------------------------------------|
E|--------------------------------------------------------------|
                 I always have to steal my kisses from you

e|----------10-------------------------------3-3-----------------|
B|---------------------------------------------------3-----------|
G|-----9s11--------------------------------4-----2s4---4p2p0-----|
D|-----------------------------------------------------------2p0-|
A|---------------------------------------------------------------|
E|---------------------------------------------------------------|
Said, I-I-I've always got to steal my kisses from you.
  G                                   C
I always have to steal my kisses from you
D                                   G
Always have to steal my kisses from you.
        G                                    C
Said, I always have to steal my kisses from you
                D                            G
Said, I-I-I've always got to steal my kisses fro-oo-um you.





Comments


Popular Jake Owen tabs & chords
Alone With You 1 Chords
Anywhere With You 4 Chords
Barefoot Blue Jean Night 1 Chords
Beachin Chords
Cherry On Top 1 Chords
Days Of Gold Chords
Don't Think I Can't Love You Chords
Kiss You Good Morning - Capo 4 Chords
What We Aint Got Chords
Who Said Whiskey (was Meant To Drink A Woman Away) Chords


Song lyrics



↑ Back to top | Tablatures and chords are parodies/interpretations of the original songs. You may use it for private study, scholarship, research or language learning purposes only
© 2014 AZChords.com Contact us | Privacy policy | DMCA | Add/correct tabs | Request tabs | Top 50 tabs