» » »

Jake La Botz, Sincerely Yours A82759 Tabs (ver.1)

Artists:  A B C D E F G H I J K L M N O P Q R S T U V W X Y Z # 

Sincerely Yours A82759 Tabs (ver.1)

Jake La Botz Tabs
 Rating:
4/5 (4 votes)
Sincerely Yours A82759 lessons Tabs too difficult? Try these video lessons and learn fast
                Jake La Botz - Sincerely Yours A-82759 (tab by Nickey Whitfield)

very specific picking technique, somewhat irregular but most of the time picking for 
lower E
and D string alternating according to the rhythm with the thumb and using the other 
for the more
melodic parts on the higher strings

Tab according to live version from Tattoo Across America Tour

This is the intro as well as the song

Verse

e|------------7-------6---------5-----3-----------------------2---------------3-------------|
B|--------------------------------------3-----------------------0---0-----------1---1-------|
G|--------------7-------6-----5---5-------0-----------------2-----2---------0-----0---------|
D|------5p0--------5-------5------------------------------1---------------2-----------------|
A|----------------------------------------2-------0-1---2-----2-------0-3-----3-------------|
E|---/7-------7-------6-------5-------3---------3-------------------------------------------|

e|---------------------------------------|
B|---------------------------------3-----|
G|---------0-----0-0----2----------2-----|
D|-------0-----0--------2----------0-----|
A|---3-2-----1-------0--0----------------|
E|----------------------------0-2--------|

Chorus

e|-------------3--3---------3----------------------------5-5-------5-----------------------------|
B|------------------1---1-------1------------------------------2h3-------------------------------|
G|----0---0-----------0-------0-----0---0----2-2-------2---------------0--0-3-4-0---6--5--3------|
D|-------------2------2-------2--------------2-------2-------2-------2----0-----0------------2p0-|
A|--0---2---3-----3-------3---------------0------3-4-----0-----0---------------------------------|
E|--------------------------------3---4---------------------------------3---3-------6--5--3------|

e|---------------3-----3----------|
B|----------1------3--------------|
G|---0-0--3----------0------------|
D|-----0------2------0------------|
A|--------3---3-------------------|
E|---3-----------3-----3----------|

Hello, bro tell me, how's things out there
Back at home
When my address is the same
And you know I ain't got a phone

Oh but eight more years and I'll be home
If can make it that long
Well and I, I'm gonna go straight that day

I'm in two years today
And it looks like I'll do the whole time
On a dime
I'll take it to the door
because I'm in the hole for tattooing
And making wine

Eight more years and I'll be home
If I can make it that long
Well and I, I'm gonna go straight that day

Hey hey hey
Mhh mhh mhh

Man, me and you were happy since 1974
The first drugstore
Well, the first one was so easy
We knocked over a dozen more

Oh but eight more years and I'll be home
If I can make it that long

You're the only one left outside
Who hasn't died
So drop a line
Sincerely yours A82759
Doin' time

Eight more years and I'll be home
If I can make it that long
Eight more years and I'll be home
If I can make it that long
If I can make it that long

Make it that long
Make it that long
Make it that long
Make it that long
Make it that long
            
Submit corrections

comments powered by Disqus
↑ Back to top | Jake La Botz Tabs for Sincerely Yours A82759. Lyrics for acoustic guitar and electric guitar. Tablatures and chords are parodies/interpretations of the original songs. You may use it for private study, scholarship, research or language learning purposes only