» » »

Jake La Botz, Needed Time Tabs (ver.1)

Artists:  A B C D E F G H I J K L M N O P Q R S T U V W X Y Z # 

Needed Time Tabs (ver.1)

Jake La Botz Tabs
 Rating:
4/5 (4 votes)
Needed Time lessons Tabs too difficult? Try these video lessons and learn fast
                Jake La Botz - Needed Time

(Capo on 2nd fret)

e|-----4---4-------7---7-----2/3/2p0-------3b-3b-3b-0---0---------0-----------0----------|
B|----------------------------------------------------2---------------------0------------|
G|--/4---4---4--/7---7---7---2/3/2p0-----------------------0h10h1---------1--------------|
D|--------------------------------------2-------------------------------2----------------|
A|------------------------------------0-------------------------------2------------------|
E|------------------------------------------------------------------0--------------------|


e|-----0---------0---------0-------0--------0-------0-------2------2--3--2------2--------|
B|----------0--------0---------2-------2--------2-------2-------0-------------0---0---0--|
G|-------1---------1---------2-------2--------1-------1-------2----2--3--2--2-------2----|
D|-------2---------2---------2-------2--------2-------2-------1---------------------1----|
A|---2---------2---------0-------0--------2-------2-------2---------------------2--------|
E|-----------------------------------------------------------------2--3--2---------------|

E     
Jesus, won't come by here?
A                            E
Oh, Jesus, won't you come by here?
E                       B7
Jesus won't you come by here

E
Now, Lord, is a needed time
      A                      E
Right now, Lord, is a needed time
E        B7     E
Now is a needed time.

Well, come, Lord, if you don't stay long
Well, come, Lord, you don't stay long
Jesus, won't come by here?

Now, Lord, is a needed time
Right now, Lord, is a needed time
Now is a needed time.

I am down on my knees and prayin',
Now, on my knees and pray',
Jesus, Will coma by here?

Now, Lord, is a needed time
Right now, Lord, is a needed time
Now is a needed time.

Well, won't you help me, Lord, with my heavy load
Help me, Lord, with my heavy load
Jesus, Will coma by here?

Now, Lord, is a needed time
Right now, Lord, is a needed time
Now is a needed time.
            
Submit corrections

comments powered by Disqus
↑ Back to top | Jake La Botz Tabs for Needed Time. Lyrics for acoustic guitar and electric guitar. Tablatures and chords are parodies/interpretations of the original songs. You may use it for private study, scholarship, research or language learning purposes only