>
 >
If I Were An Artist

If I Were An Artist Guitar Tabs

Jake Coco - If I Were An Artist chords, tabs, tablatures, lyrics

Guitar lessons | Add/correct | Request | Top 50 tabs Artists:  A B C D E F G H I J K L M N O P Q R S T U V W X Y Z 0-9

If I Were An Artist Guitar Tabs – Jake Coco

CD, Sheet music, Poster

Do you like If I Were An Artist? Share with your friends now
ChordsTabsUkulele
*NOTE: I tabbed this song just by listening to it and watching him play it live. Jake 
plays around with picking a lot of his chords in this song.

Listen to the song to get the right strumming pattern and timing.
Enjoy.


Intro/Verse:
E----0-----0-----0-----0-----|
B----5-----0-----0-----0-----|
G----6-----6-----1-----8-----|
D----6-----7-----2-----9-----|
A----4-----7-----2-----9-----|
E----0/4---5-----0-----7-----| (play 3 times)

And I could paint you red
Like the passion you feel
It might not be colorful
But at least it'd be real

And I could paint you green
Like the envy you know
You're all alone and I
With nowhere to go

And I could paint you grey
To show how you're empty
To show how you don't care
So the world can all see

Chorus:
E----0-----0-----0-----0-----|
B----0-----0-----0-----0-----|
G----1-----3-----2-----1-----|
D----2-----4-----2-----2-----|
A----2-----4-----0-----2-----|
E----0-----0-----0-----0-----|

And I could paint you clear
I'd make you graceful
I'd make you beautiful
Cause that's what you are

E----0-----0-----0-----0-----|
B----5-----0-----0-----0-----|
G----6-----6-----1-----8-----|
D----6-----7-----2-----9-----|
A----4-----7-----2-----9-----|
E----0/4---5-----0-----7-----|

Verse:
E----0-----0-----0-----0-----|
B----5-----0-----0-----0-----|
G----6-----6-----1-----8-----|
D----6-----7-----2-----9-----|
A----4-----7-----2-----9-----|
E----0/4---5-----0-----7-----| (play 2 times)

And I could paint you taupe
Cause they say that it's soothing
But you're like a drug to me
That could use some abusing

And I could paint you gold
To show you're a mourner
Would that make you honest
Would it make you sincere

Chorus:
E----0-----0-----0-----0-----|
B----0-----0-----0-----0-----|
G----1-----3-----2-----1-----|
D----2-----4-----2-----2-----|
A----2-----4-----0-----2-----|
E----0-----0-----0-----0-----|

And I could paint you clear
I'd make you graceful
I'd make you beautiful
Cause that's what you are

E----0-----0-----0-----0-----|
B----5-----0-----0-----0-----|
G----6-----6-----1-----8-----|
D----6-----7-----2-----9-----|
A----4-----7-----2-----9-----|
E----0/4---5-----0-----7-----|

Bridge:
E----0-----0-----0-----|
B----5-----0-----0-----|
G----6-----4-----2-----|
D----6-----4-----2-----|
A----4-----2-----0-----|
E----0-----0-----0-----| (play 3 times)

Ohh scarlet and clover, all the things we talked about
Violet and green and the world in between
The grey skies, your blue eyes, broken, I'm drowning you know

Chorus:
E----0-----0-----0-----0-----|
B----0-----0-----0-----0-----|
G----1-----3-----2-----1-----|
D----2-----4-----2-----2-----|
A----2-----4-----0-----2-----|
E----0-----0-----0-----0-----|

And I could paint you clear
I'd make you graceful
I'd make you beautiful
Cause that's what you are

E----0-----0-----0-----0-----|
B----5-----0-----0-----0-----|
G----6-----6-----1-----8-----|
D----6-----7-----2-----9-----|
A----4-----7-----2-----9-----|
E----0-----5-----0-----7-----|

And I could be clear
Yeah you could see through me
But I could be beautiful
Just to be yours, just to be..

E----0-----0-----0-----0-----|
B----0-----0-----0-----0-----|
G----1-----3-----2-----1-----|
D----2-----4-----2-----2-----|
A----2-----4-----0-----2-----|
E----0-----0-----0-----0-----|

I could paint you clear
I'd make you graceful
I'd make you beautiful
Cause that's what you are

E----0-----0-----0-----0-----|
B----0-----0-----0-----0-----|
G----1-----3-----2-----1-----|
D----2-----4-----2-----2-----|
A----2-----4-----0-----2-----|
E----0-----0-----0-----0-----|

And I could be clear
I could be graceful
I swear I'd be colorful
Just to be yours

Outro:
E----0-----0-----0-----|
B----0-----0-----0-----|
G----2-----2-----1-----|
D----2-----2-----2-----|
A----0-----0-----2-----|
E----0-----0-----0-----|

If I were an artist
Then I could be yours





Comments


Popular Jake Coco tabs & chords
Id Give You The Moon Chords
Re-defining Love Chords
Wonderwall Chords
Angels Tabs
Broken Hearts And Fairytales Ukulele
Id Give You The Moon Ukulele
Old T-shirt Ukulele
Re-defining Love Ukulele
The One That Got Away Ukulele
Tylers Song Ukulele


Song lyrics



↑ Back to top | Tablatures and chords are parodies/interpretations of the original songs. You may use it for private study, scholarship, research or language learning purposes only
© 2014 AZChords.com Contact us | Privacy policy | DMCA | Add/correct tabs | Request tabs | Top 50 tabs