» » »

Jake Coco, Id Give You The Moon Tabs (ver.1)

Artists:  A B C D E F G H I J K L M N O P Q R S T U V W X Y Z # 

Id Give You The Moon Tabs (ver.1)

Jake Coco Tabs
 Rating:
4/5 (4 votes)
Id Give You The Moon lessons Tabs too difficult? Try these video lessons and learn fast
                Jake Coco- I'd Give You The Moon
Standard Tuning

Intro
|----2/4----2h4p2p0---4---2---2---5---4---4--|
|---------------------5---4---4---7---5---5--|
|--------------------------------------------|
|--------------------------------------------|
|--------------------------------------------|
|-0------0---------0----0---0---0---0---0---0-|

|---2/4----2h4p2p0---4---2---2---5---4---7---11---12---(12)-|
|--------------------5---4---4---7---5---9---12---12---(12)-|
|-----------------------------------------------------------|
|-----------------------------------------------------------|
|-----------------------------------------------------------|
|-0-----0---------0----0---0---0---0---0---0----0-----0-----|


Verse
|---0-------0-------0------0--|
|--0-0-----0-0-----0-0----0-0-|
|-----------------------------|
|-----------------------------| x4
|-----------------------------|
|0------4-------5-------7-----|


Pre-Chorus
|---0-------0-------0------0------0-------0-----|
|--0-0-----0-0-----0-0----0-0----0-0-----0-0----|
|-----------------------------------------------|
|-----------------------------------------------|
|-----------------------------------------------|
|9------7-------0-------0------4-------5------7-|


Chorus
|---0-------0-------0------0--|    [---0-------0------]
|--0-0-----0-0-----0-0----0-0-|    [--0-0-----0-0-----]
|-----------------------------|    [------------------]
|-----------------------------| x3 [------------------]
|-----------------------------|    [------------------]
|0------4-------5-------7-----|    [-9------7-------5-]


Verse
|---0-------0-------0------0--|
|--0-0-----0-0-----0-0----0-0-|
|-----------------------------|
|-----------------------------| x4
|-----------------------------|
|0------4-------5-------7-----|


Pre-Chorus
|---0-------0-------0------0------0-------0-----|
|--0-0-----0-0-----0-0----0-0----0-0-----0-0----|
|-----------------------------------------------|
|-----------------------------------------------|
|-----------------------------------------------|
|9------7-------0-------0------4-------5------7-|


Chorus
|---0-------0-------0------0--|    [---0-------0------]
|--0-0-----0-0-----0-0----0-0-|    [--0-0-----0-0-----]
|-----------------------------|    [------------------]
|-----------------------------| x3 [------------------]
|-----------------------------|    [------------------]
|0------4-------5-------7-----|    [-9------7-------5-]

Bridge
|---0-------0-------0------0------0------0-------2/4-----2h4p2p0------0--|
|--0-0-----0-0-----0-0----0-0----0-0----0-0---------------------------0--|
|------------------------------------------------------------------------|
|------------------------------------------------------------------------|x2
|------------------------------------------------------------------------|
|2------2-------4-------4-----5------5--------0-------0-----------0------|


Chorus
|---0-------0-------0------0--|   [---0-------0-------0--------0--]
|--0-0-----0-0-----0-0----0-0-|   [--0-0-----0-0-----0-0------0-0-]
|-----------------------------|   [-------------------------------]x2
|-----------------------------|   [-------------------------------]
|-----------------------------|   [-------------------------------]
|0------4-------5-------7-----|   [-9------7-------5-------7------]


Outro
|----2/4----2h4p2p0---4---2---2---5---4---4--|
|---------------------5---4---4---7---5---5--|
|--------------------------------------------|
|--------------------------------------------|
|--------------------------------------------|
|-0------0---------0----0---0---0---0---0----|

|---2/4----2h4p2p0---4---2---2---5---4---7---11---12---12---7---11---12---12---7---11---14---12v-|
|--------------------5---4---4---7---5---9---12---12---12---9---12---12---12---9---12---12---12v-|
|------------------------------------------------------------------------------------------------|
|------------------------------------------------------------------------------------------------|
|------------------------------------------------------------------------------------------------|
|-0-----0---------0----0---0---0---0---0---0----0----0----0---0----0----0----0---0----0----0-----|
            
Submit corrections

comments powered by Disqus
↑ Back to top | Jake Coco Tabs for Id Give You The Moon. Lyrics for acoustic guitar and electric guitar. Tablatures and chords are parodies/interpretations of the original songs. You may use it for private study, scholarship, research or language learning purposes only