» » »

Jake Coco, Angels Tabs (ver.1)

Artists:  A B C D E F G H I J K L M N O P Q R S T U V W X Y Z # 

Angels Tabs (ver.1)

Jake Coco Tabs
 Rating:
4/5 (6 votes)
Angels lessons Tabs too difficult? Try these video lessons and learn fast
                -------------------------------------------------------------------------------
-------------------------------------------------------------------------------

Hey, I couldn't find the tab for this song anywhere on the net, so I tabbed it out for u guys.
On his vidoe the 3rd fret is capo'd, but the album version has the 4th fret cap'd. 


Tuning:EADGBe 

e|---------|
B|---------|
G|---x-x-x-|
D|---x-x-x-|
A|-x-x-x-x-|
E|-x-x-x-x-|

e|--------------------------------------|  Intro + Verse
B|--------------------------------------|
G|-------0----0-0----------0-0--0-0-0---|  x6
D|-2-2---9----7-7----0h2---2-2--4-4-4h5-| 
A|-2-2---10---9-9-0h3----3-3-3--5-5-5---|
E|-0-0-0-0--0-0-0-----------------------|

e|-0-----0------|  Pre-Chorus
B|-0-----0------|  
G|-2-----0------|  x2
D|-2-----2------|
A|-0-----3------|
E|--------------|

e|---------0-0-0-0-0-0-|-0-0-0-0-0-0-0-0-0-|	|  
B|---------0-0-0-0-0-0-|-0-0-0-0-0-0-0-0-0-|	|
G|---------0-0-0-0-0-0-|-2-2-2-2-2-2-2-2-2-|	|
D|-2-2-2-x-2-2-2-2-2-2-|-2-2-2-2-2-2-2-2-2-|	|
A|-2-2-2-x-3-3-3-3-3-3-|-0-0-0-0-0-0-0-0-0-|	|
E|-0-0-0-x-------------|-------------------|	|
						|
e|----------------0-0-0-0-3-3-3-3-|  		|
B|----------------0-0-0-0-0-0-0-0-|		|   Chorus
G|-------0----0-0-0-0-0-0-0-0-0-0-|  		|
D|-2-2---9----7-7-2-2-2-2-2-2-2-2-| 		|
A|-2-2---10---9-9-3-3-3-3-3-3-3-3-|		|
E|-0-0-0-0--0-0-0-----------------|		|
						|
e|---------0-0-0-0-0-0-|-0----------------|	|
B|---------0-0-0-0-0-0-|-0----------------|	|
G|---------0-0-0-0-0-0-|-2----------------|	|
D|-2-2-2-x-2-2-2-2-2-2-|-2----------------|	|
A|-2-2-2-x-3-3-3-3-3-3-|-0----------------|	|
E|-0-0-0-x-------------|------------------|	|


	Verse x5
	Pre-chorus x2
	Chorus
	Verse Riff x3


e|-----x-x-x-x-| 	e|---|
B|-----x-x-x-x-|	B|---|
G|-----x-x-x-x-|  x3	G|---|
D|-2-2-x-x-x-x-|	D|-2-|
A|-2-2-x-x-x-x-|	A|-2-|
E|-0-0-x-x-x-x-|	E|-0-|	

e|-----x-x-x-x-| x2  	e|-----x-x-x-x-| x2	|
B|-----x-x-x-x-|   	B|-----x-x-x-x-|	|
G|-----x-x-x-x-|	G|-----x-x-x-x-|	|   x2     then once without the pick-scratches
D|-2-2-x-x-x-x-|	D|-2-2-x-x-x-x-|	|
A|-2-2-x-x-x-x-|	A|-3-3-x-x-x-x-|	|
E|-0-0-x-x-x-x-|	E|-0-0-x-x-x-x-|	|

e|-------------|-0-0-0-0-0-0-0-0-|
B|-------------|-0-0-0-0-0-0-0-0-|
G|-------------|-0-0-0-0-0-0-0-0-|
D|-2-2---------|-2-2-2-2-2-2-2-2-|
A|-2-2---------|-3-3-3-3-3-3-3-3-|
E|-0-0---------|-----------------|

e|---------0-0-0-0-0-0-|-0-0-0-0-0-0-0-0-0-|  	|
B|---------0-0-0-0-0-0-|-0-0-0-0-0-0-0-0-0-|	|
G|---------0-0-0-0-0-0-|-2-2-2-2-2-2-2-2-2-| 	|	
D|-2-2-2-x-2-2-2-2-2-2-|-2-2-2-2-2-2-2-2-2-|	|
A|-2-2-2-x-3-3-3-3-3-3-|-0-0-0-0-0-0-0-0-0-|	|     Outro x3
E|-0-0-0-x-------------|-------------------|	|
						|
e|----------------0-3-3-3-3-3-3-3-|  		|
B|----------------0-0-0-0-0-0-0-0-|		|
G|-------0----0-0-0-0-0-0-0-0-0-0-|  		|
D|-2-2---9----7-7-2-2-2-2-2-2-2-2-|		|
A|-2-2---10---9-9-3-3-3-3-3-3-3-3-|		|
E|-0-0-0-0--0-0-0-----------------|		|

e|---------0-0-0-0-0-0-|-0---------|  
B|---------0-0-0-0-0-0-|-0---------|
G|---------0-0-0-0-0-0-|-2---------|
D|-2-2-2-x-2-2-2-2-2-2-|-2---------|
A|-2-2-2-x-3-3-3-3-3-3-|-0---------|
E|-0-0-0-x-------------|-----------|



| /  slide up
| \  slide down
| h  hammer-on
| p  pull-off
| ~  vibrato
| +  harmonic
| x  Mute note
===============================================================================
            
Submit corrections

comments powered by Disqus
↑ Back to top | Jake Coco Tabs for Angels. Lyrics for acoustic guitar and electric guitar. Tablatures and chords are parodies/interpretations of the original songs. You may use it for private study, scholarship, research or language learning purposes only