» » »

Visible Tabs (ver.1)

Artists:  A B C D E F G H I J K L M N O P Q R S T U V W X Y Z # 

Visible Tabs (ver.1)

Jaguares
Rating:
5/5 (1 vote)

Hard to play? Try these video lessons and learn fast.
                intro:

E|--3-3---3-3-3-|--3-3---3-3-3-|--3-3---3-3-3-|--3-3---3-3-3-|
B|--3-3---3-3-3-|--3-3---3-3-3-|--3-3---3-3-3-|--3-3---3-3-3-|
G|--4-4---4-4-4-|--4-4---4-4-4-|--4-4---4-4-4-|--4-4---4-4-4-|
D|--5-5---5-5-5-|--5-5---5-5-5-|--5-5---5-5-5-|--5-5---5-5-5-|
A|--5-5---5-5-5-|--5-5---5-5-5-|--5-5---5-5-5-|--5-5---5-5-5-|
E|--3-3---3-3-3-|--3-3---3-3-3-|--3-3---3-3-3-|--3-3---3-3-3-|

G       D             Em
Si no fuera porque te vi una vez
C    D              Em
juraria que no existe la paz
G       D             Em
si no fuera porque te vi una vez
C              D                   Em
ya hubiera cruzado al mundo espiritual.


E|--3-3---3-3-3-|--3-3---3-3-3-|--3-3---3-3-3-|--3-3---3-3-3-|
B|--3-3---3-3-3-|--3-3---3-3-3-|--3-3---3-3-3-|--3-3---3-3-3-|
G|--4-4---4-4-4-|--4-4---4-4-4-|--4-4---4-4-4-|--4-4---4-4-4-|
D|--5-5---5-5-5-|--5-5---5-5-5-|--5-5---5-5-5-|--5-5---5-5-5-|
A|--5-5---5-5-5-|--5-5---5-5-5-|--5-5---5-5-5-|--5-5---5-5-5-|
E|--3-3---3-3-3-|--3-3---3-3-3-|--3-3---3-3-3-|--3-3---3-3-3-|


G       D             Em
si no fuera porque te vi una vez
C      D         Em
desearia no volver a surgir
G       D             Em
si no fuera porque te vi una vez
C            D              Em
mi desamparo total, estructura final.

Am         D
Habia cambiado mi sangre
     Bm
por una ficcion
Am         D        Bm
habia olvidado la luna y la luz.

Am          C
Invoco tu esencia
            D
y dale presencia a lo invisible
Am         C           D
dale un espacio en tu mundo mortal.

Am          C
Invoco tu esencia
            D
y dale presencia a lo invisible
Am         C           D
dale un espacio en tu mundo mortal.


E|--3-3---3-3-3-|--3-3---3-3-3-|--3-3---3-3-3-|--3-3---3-3-3-|
B|--3-3---3-3-3-|--3-3---3-3-3-|--3-3---3-3-3-|--3-3---3-3-3-|
G|--4-4---4-4-4-|--4-4---4-4-4-|--4-4---4-4-4-|--4-4---4-4-4-|
D|--5-5---5-5-5-|--5-5---5-5-5-|--5-5---5-5-5-|--5-5---5-5-5-|
A|--5-5---5-5-5-|--5-5---5-5-5-|--5-5---5-5-5-|--5-5---5-5-5-|
E|--3-3---3-3-3-|--3-3---3-3-3-|--3-3---3-3-3-|--3-3---3-3-3-|


G       D             Em
Si no fuera porque te vi una vez
C           D               Em
tenia mis ojos clavados en una pared
G       D             Em
si no fuera porque te vi una vez
C       D                  Em
mi corazon escondido, temeroso de ser.

Am          D
Habia cambiado mi sangre
    Bm
por una ficcion
Am          D      Bm
habia olvidado la luna y la luz.

solo:
                                ( 2 VECES )
E|-----------------|  |------------------|-----------------|
B|--7---7----7-8-7-|  |-7-8-7-8-7-8-10-8-|-7-8-7---7-8-7---|
G|----9----9-------|  |------------------|-------9-------9-|
D|-----------------|  |------------------|-----------------|
A|-----------------|  |------------------|-----------------|
E|-----------------|  |------------------|-----------------|

                       ( 2 VECES )
 ---------------|-----------------|-----------------|-----------------|
 ---------------|-----------------|-----------------|-----------------|
 ---------------|-----------------|-----------------|-----------------|
 -2-4-2-4-2-4-5-|-4-5-4-5-4-5-7-5-|-4-5-4-2-4-5-4-2-|-4-5-4-2-4-5-4-2-|
 ---------------|-----------------|-----------------|-----------------|
 ---------------|-----------------|-----------------|-----------------|




Am          C
Invoco tu esencia
             D
y dale presencia a lo invisible
Am         C           D
dale un espacio en tu mundo mortal.

Am          C
Invoco tu esencia
            D
y dale presencia a lo invisible
Am         C          D
dale un espacio a tu mundo mortal.


Am       C           D
Hazme visible en tu mundo mortal

Am       C           D
hazme visible en tu mundo mortal

 este es el solo final:

                    ( 4 VECES )
E|--------------|-------------------|-------------|--------------|
B|--------------|-------------------|-------------|--------------|
G|--------------|-------------------|-------------|--------------|
D|--9-9-9-------|-----------9-------|-7-7-7-------|-7-7-7--------|
A|---------7--7-|-10-10-10------10--|--------5--5-|--------5--5--|
E|--------------|-------------------|-------------|--------------|
            
Hard to play? Try these video lessons and learn fast. | Correct




comments powered by Disqus
↑ Back to top | Tablatures and chords are parodies/interpretations of the original songs. You may use it for private study, scholarship, research or language learning purposes only