>
 >
Huracan

Huracan Guitar Tabs

Jaguares - Huracan chords, tabs, tablatures, lyrics

Guitar lessons | Add/correct | Request | Top 50 tabs Artists:  A B C D E F G H I J K L M N O P Q R S T U V W X Y Z 0-9

Huracan Guitar Tabs – Jaguares

CD, Sheet music, Poster

Do you like Huracan? Share with your friends now
Tabs
TAB por Diego González
Huracán – Jaguares
El Equilibrio de los Jaguares

Afinación estándar EBGDAE

INTRO (0:00 – 0:30)

Guitarra 1 (Distorsión & Echo)
|---------------------------------------------------------15----| 
|-------------------------------------------------------13------| 
|-/6~------6/7~------7/9\6~------6-7/9~------10/12~--/12--------| 
|---------------------------------------------------------------| 
|---------------------------------------------------------------| 
|---------------------------------------------------------------| 
Guitarra 2 (Clean, Reverb, Eco)
|---------------------------------------------------------------| 
|---2---------2-------------------------------------------------| 
|-4---------2------------2-------------2--------0---------------| 
|-4----2-4--4-----------2------------3---------2----------------| 
|-2---------5-----------4------------3---------3----------------| 
|-----------------------5------------1---------3----------------| 


VERSOS
Guitarra 1 (Clean & Delay 150bpm)
|--------------------------------------7p5---------7-----| 
|-7p5---------7p5--------7p5-------------------------8---| 
|--------------------------------------------------------| 
|--------------------------------------------------------| 
|--------------------------------------------------------| 
|--------------------------------------------------------| 
Guitarra 2 (Clean & Delay 150bpm)
|--------------------------------------------------------| 
|-2-----------2------------------------------------------| 
|-4-----------2-----------2------------2-----------0-----| 
|-4-----------4-----------2------------3-----------2-----| 
|-2-----------5-----------4------------3-----------3-----| 
|-------------------------5------------1-----------3-----| 
 Sabes…                                Ni siquiera…

PUENTE
Guitarra 1 (Clean & Delay 150bpm)
|------------------------5------------------8------------------| 
|------------6-------------------------9------9---------6---5--| 
|--------5-7---------5--------------10---10-----------5---5----| 
|------8-----------7---7---------10-----------------5----------| 
|----8-----------8---------------------------------------------| 
|-/6-----------------------------------------------------------| 
Guitarra 2 (Mínima Distorsión)
|-----------------------------------------------------------0--| 
|----------3------------1-------------------6-------------1----| 
|------3--------------2----------------5------6---------0------| 
|----3---3----------3---------------3----3------------2--------| 
|--1--------------3--------------3------------------3----------| 
|---------------1----------------------------------------------| 
   A#           F                C/F                C

CORO 
Guitarra 1 (Distorsión)
|--------------------------------------|-------------------------------------| 
|--------------------------------------|-------------------------------------| 
|-2-----------------2------------------|---------2---5h7-7^7^7^7^7^7^7-5-----| 
|-2--------2--------3----------2-------|-3---2---2-----------------------7~--| 
|-0--------3--------2----------2-------|-3---2---0---------------------------| 
|------------------------------0-------|-1---0-------------------------------| 

|--------------------------------------|--------------------------0--------| 
|-----1--------1-----------------------|----------------------------1------| 
|-------2--------0-------2-----------1-|----------------------2-------2----| 
|---2--------2---------3---3-------2---|-----3-------2------2---2-------2--| 
|-0--------3---------2-----------2-----|---3---3---2---2--0----------------| 
|------------------------------0-------|-1-------0-------------------------| 
 Am        C        Bdis       E         F5      E5      Am



SOLO
Guitarra 1 (Distorsión) Guitarra 2 (repite el coro hasta el final)
|-------------------------------------------------------------------------| 
|-------------------------------------------------------------------------| 
|7^--7^7^7^7^7^7br-5-7-5h7p4--------7-9-10-9-7-9---10-12-10h12p9----------| 
|--------------------------------/10--------------------------------------| 
|-------------------------------------------------------------------------| 
|-------------------------------------------------------------------------| 

(4:01)
|----------------------------------------------------------------12-----| 
|----------------10---13-12---/13~-12-10-13~-12-10-15^--13-12-9-----9---| 
|7-9-5~-5-7-5-4-----9---------------------------------------------------| 
|-----------------------------------------------------------------------| 
|-----------------------------------------------------------------------| 
|-----------------------------------------------------------------------| 
(4:12)
|--------------------------------------------------------| 
|--------------------------------------------------------| 
|-2^--0-2-0-------------0-2-0h2p0-0-2-4-5-4h5p4h5p4h5p4--| 
|-----------2---------2----------------------------------| 
|-------------3-2-0-3------------------------------------| 
|--------------------------------------------------------| 
(4:17)
|-15^----15^15^15br---------------------------12---------| 
|-------------------15-17-15-13-12-15-13-12-9~---9-------| 
|--------------------------------------------------------| 
|--------------------------------------------------------| 
|--------------------------------------------------------| 
|--------------------------------------------------------| 
(4:23)
|--------------------10-12-10h12p10---12------15-17-15h17p15-171717/19191919-| 
|-10-10-10br-8-10-12----------------13-----/17-------------------------------| 
|----------------------------------------------------------------------------| 
|----------------------------------------------------------------------------| 
|----------------------------------------------------------------------------| 
|----------------------------------------------------------------------------| 
(4:30)
|--------------------------------------------------------| 
|-------------------------------------------------9999~--| 
|-/99999\/99999\/777777\4/9~-/99999\/99999\/77777--------| 
|--------------------------------------------------------| 
|--------------------------------------------------------| 
|--------------------------------------------------------| 
(4:42)
|----------------------------------| 
|-/10 (18 veces) 12tr-13tr---------| 
|----------------------------------| 
|----------------------------------| 
|----------------------------------| 
|----------------------------------| 
(4:48)
|------------------------------------------------| 
|--------5--------------------------------5------| 
|7^--5-7---7-5-7p5---5--5a5a5a5a-5br4-5-4---4----| 
|------------------7-----------------------------| 
|------------------------------------------------| 
|------------------------------------------------| 
(4:54)
|-----------------------------/4-----------------| 
|--------------------------------5---------------| 
|5â--------------------------------5--------| 
|---7-5---------------5-7a-----------7~----------| 
|-------7-----------7----------------------------| 
|---------8-7-5-8--------------------------------| 
(5:01)
|----------------------------------------------------------------------13-13-12~-| 
|-/10h13p10—13p10h13T17p13p10-8h10p8h10T17p13~--/13131313-15-13-12---------| 
|--------------------------------------------------------------------------------| 
|--------------------------------------------------------------------------------| 
|--------------------------------------------------------------------------------| 
|--------------------------------------------------------------------------------| 
(5:07)
|---------------------------------------------------------------------| 
|-15fb-15-13-15-13-121312--12-----------------------------------------| 
|------------------------14--14121412---------------------------------| 
|------------------------------------14------12p10h12~--12-10-12-14a--| 
|---------------------------------------------------------------------| 
|---------------------------------------------------------------------| 
(5:13)
|--------------------------------------------------------| 
|---10---13-12------------------------------------/9~----| 
|-9----9-------12-14-12-9~--7-9-7h9p7-5-7-5h7p5-4--------| 
|--------------------------------------------------------| 
|--------------------------------------------------------| 
|--------------------------------------------------------| 
(5:19)
|---------------------------------------------------------------------| 
|-/10~10~10~10a10a10a10a1010a10~1010a10a10a10~10a10~1010a10a10a10fb---| 
|---------------------------------------------------------------------| 
|---------------------------------------------------------------------| 
|---------------------------------------------------------------------| 
|---------------------------------------------------------------------| 
(5:32)
|--------------------------------------------------------| 
|--------------------------------------------------------| 
|--------------------------------------------------------| 
|-7-5-------//-------------------------------------------| 
|-----7--------------------------------------------------| 
|-------8~~~---------------------------------------------| 

SIMBOLOGIA
/ Deslizar (Adelante)
\ Deslizar (Atrás)
~  Vibrato
h Hammer On
p Pull Of
^ Bend
fb Full Bend
br Bend & Release
tr Tremolo Picking
T   Tap
a   Harmonico Artificial
â  Harmonico Artificial con Bend





Comments


Popular Jaguares tabs & chords
¿Adonde Vamos A Ir? 1 Bass Tabs
Clavame Mejor Los Dientes Bass Tabs
Clavame Mejor Los Dientes 1 Bass Tabs
Dejate Ver Chords
Nunca Te Doblaras Chords
Ahi Aprendi Tabs
Clavame Mejor Los Dientes 1 Tabs
No Dejes Que.. Tabs
Como Tu Ukulele
Dejate Ver Ukulele


Song lyrics



↑ Back to top | Tablatures and chords are parodies/interpretations of the original songs. You may use it for private study, scholarship, research or language learning purposes only
© 2014 AZChords.com Contact us | Privacy policy | DMCA | Add/correct tabs | Request tabs | Top 50 tabs