» » »

Jaguares, Dejate Tabs (ver.1)

Artists:  A B C D E F G H I J K L M N O P Q R S T U V W X Y Z # 

Dejate Tabs (ver.1)

Jaguares Tabs
 Rating:
4/5 (4 votes)
Dejate lessons Tabs too difficult? Try these video lessons and learn fast
1
                "Band  : Los Jaguares
Album : El Equilibrio de Los Jaguares ('1996)
Song  : Dejate Ver (Track #11/15)

Bueno aqui esta una de las rolas q me gusta muchisimo espero
les gusteesta muy facil de tocar.

Intro
  Am    G
G|------------||
D|-7----5-----||  Dos veces
A|------------||
E|-5----3-----||

 En esta rola el bajo solo participa en el coro y hace esto 

CORO  Deja ya...

  Am           C            D            F
G|------------|------------|------------|------------|
D|------------|------------|------------|------------|
A|------------|3-3---3-3-3-|5-5---5-5-5-|------------|
E|5-5---5-5-5-|------------|------------|1----1------|

  Asi se repiten todos los coros.

 Puente...
  Am     G     Am           G
G|------------|------------|------------||
D|------------|-----5-7-5--|------------||
A|------------|----7-----7-|------------||
E|-5-----3---3|-5-5--------|3----3------||

En el solo de guitarra hace esto el bajo

Am           C            D            F
G|------------|------------|------------|------------|
D|------------|------------|------------|------------|
A|------------|3-3--3-3-3-3|5-5--5-5-5-5|------------|
E|5-5--5-5-5-5|------------|------------|1----1------|

  Am           C            D            F
G|------------|------------|------------|------------|
D|------------|------------|------------|------------|
A|------------|3-3--3-3-3-3|5-5--5-5-5-5|--8----8-8-7|
E|5-5--5-5-5-5|------------|------------|8----8------|

  Am           C            D            F
G|------------|------------|------------|------------|
D|------------|------------|------------|------------|
A|------------|3-3--3-3-3-3|5-5--5-5-5-5|8s3-----5--8|
E|5-5--5-5-5-5|------------|------------|----1s8---8-|

  Am           C            D            F
G|------------|------------|------------|--------------|
D|------------|------------|------------|--------------|
A|------------|3-3--3-3-3-3|5-5--5-5-5-5|8-8-5--8-8-5-8|
E|5-5--5-5-5-5|------------|------------|-----8------8-|

  Am           C            D            F
G|------------|------------|------------|------------|
D|------------|------------|------------|------------|
A|-----------5|3-3--3-3-3-3|5-5--5-5-5--|------------|
E|5-5--5-5-5--|------------|-----------5s13-13-13-13-|
"            
Submit corrections

comments powered by Disqus
↑ Back to top | Jaguares Tabs for Dejate. Lyrics for acoustic guitar and electric guitar. 1 Tablatures and chords are parodies/interpretations of the original songs. You may use it for private study, scholarship, research or language learning purposes only