» » »

Jaguares, Cuando La Sangre Galopa Tabs (ver.1)

Artists:  A B C D E F G H I J K L M N O P Q R S T U V W X Y Z # 

Cuando La Sangre Galopa Tabs (ver.1)

Jaguares Tabs
 Rating:
4/5 (4 votes)
Cuando La Sangre Galopa lessons Tabs too difficult? Try these video lessons and learn fast
1
                Esta es una rola muy buena de jaguares me costo mucho tiempo 
y ezfuerzo sacarla igual pero aqui esta casi identica si no es que igual

h= hammer
p= pull off
s= slide
sa= slide hacia arriba
^ = BEND

  ESTE RIFF SE REPITE MUCHO EN LA CANCION
e/-------------------------------------------/
b/-------------------------------------------/
g/-------------9-------------7---9-----------/
d/------------------7-h-8--------------------/
a/-------------------------------------------/
E/--------0----------------------------------/

 Y DONDE DICE 'Y TE VAS...' LLEVA UNA QUINTA
e/-------------------------------------------/
b/-------------------------------------------/
g/-------------------------------------------/
d/-------------------------------------------/
a/-------------7------------7----------------/
E/-------------5------------5----------------/

    DEPUES LLEVA UN PEQUEÑO SOLO MUY RAPIDO
e/------------------------7-p-5----------------/
b/--------------------------------8-p-5--8-sa--/
g/-------------9-------------------------------/
d/---------------------------------------------/
a/---------------------------------------------/
E/--------0------------------------------------/

   AHI OTRO PEQUEÑO SOLO UN POCO MAS DIFICIL ESTE TAMBIEN SE TOCA MUY RAPIDO
e/-------------------12-------------------------------/
b/-----------------------15-P-12-----12---------14----/
g/-------------14^----------------14----14^--12----12-/
d/------9---------------------------------------------/
a/----------------------------------------------------/
E/--0-------------------------------------------------/

e/-------------------------------------------/
b/----12---12--------------------------------/
g/-------------------------------------------/
d/-------------------------------------------/
a/-------------------------------------------/
E/-------------------------------------------/

DESPUES CUANDO DICE'CUANDO LA SANGRE GALOPA ...'ES PARTE DEL CORO SOLO VA UN MI


e/----------------------------/
b/----------------------------/
g/------1---------------------/
d/------2---------------------/
a/------2---------------------/
E/----------------------------/

EL MI SE TOCA HASTA QUE EN EL CORO DICE ' Y TE MIRAS POR DENTRO...'


e/------------------------------------/
b/-------------5--------------4-------/
g/---------6--------------6-----------/
d/-----6--------------6---------------/
a/------------------------------------/
E/------------------------------------/

e/----------------------------------------------------/
b/------7---10---7---10---7---10------7---10---7---10-/
g/--6-----------------------------6-------------------/
d/----------------------------------------------------/
a/----------------------------------------------------/
E/----------------------------------------------------/

  DESPUES AHI UN PEQUEÑO SOLO ANTES DE ENTRAR AL WAH ESTE NO ES MUY RAPIDO 
e/----------------------------------------------------/
b/------------12-------10-----------------------------/
g/-10s12---12------11--------11---9---9---------------/
d/---------------------------------------9--11-11^--9-/
a/----------------------------------------------------/
E/----------------------------------------------------/

INMEDIATAMENTE DESPUES DEL EL ANTERIOR RIFF SE PASA AL SOLO 
ESTE SE HACE CON EL WAH MAS ATASCADO QUE TENGAS
                                            2 tiempos
                                             (------)
e/----------------------------------------------------/
b/-----------------------------3--5P3--0--3--5------3-/
g/-2^-2^-----0---0-0-0---2--4-------------------------/
d/---------2------------------------------------------/
a/----------------------------------------------------/
E/----------------------------------------------------/

e/------12---------------------------------------/
b/-----------15-P-12-----12---------14-----------/
g/-14^----------------14----14^--12----12--14^---/
d/-----------------------------------------------/
a/-----------------------------------------------/
E/-----------------------------------------------/

e/---------------------------------------------------/
b/---------------------------------------------------/
g/----------------14^p12-----12----------------------/
d/-------10h12s14---------14-------------------------/
a/-10h12------------------------10-10-12-12-14-12-10-/
E/---------------------------------------------------/

ES ESTA PARTE DEL SOLO LO TIENES QUE HACER RAPIDO
e/----------------------------------------------/
b/----------------------------------------------/
g/----------------------7---9-7-9------------7--/
d/---------------7---9--------------------------/
a/--------7---10--------------------------------/
E/---s10----------------------------------------/

EN EL FINAL DE SOLO TOCA LAS DOS CUERDAS PERO SOLO EN UNA HACES 
BEND Y LA OTRA LA DEJAS SONANDO PARA QUE LE DE ESE SONIDO PECULIAR

e/-------7--------------------/
b/------10^-------------------/
g/----------------------------/
d/----------------------------/
a/----------------------------/
E/----------------------------/

Y TE LA SIGUES CON ESTOS RIFFS HASTA QUE LLEGUE AL RIFF DEL PRINCIPIO


e/------------------------------------/
b/-------------5--------------4-------/
g/---------6--------------6-----------/
d/-----6--------------6---------------/
a/------------------------------------/
E/------------------------------------/

e/----------------------------------------------------/
b/------7---10---7---10---7---10------7---10---7---10-/
g/--6-----------------------------6-------------------/
d/----------------------------------------------------/
a/----------------------------------------------------/
E/----------------------------------------------------/

Y EL FINAL

e/-----------------------------------------------/
b/-----------------------------------------------/
g/-------------9-------------7---9---------------/
d/------------------7-h-8------------------------/
a/-----------------------------------------------/
E/--------0------------------------------0-------/


CUANDO QUIERAN CANCIONES DE LOS JAGUARES YA SABEN AQUIEN ACUDIR 
AL FAN # 1 DE JAGUARES
            
Submit corrections

comments powered by Disqus
↑ Back to top | Jaguares Tabs for Cuando La Sangre Galopa. Lyrics for acoustic guitar and electric guitar. 1 Tablatures and chords are parodies/interpretations of the original songs. You may use it for private study, scholarship, research or language learning purposes only