» » »

Jaguares, A Donde Vamos A Ir Tabs (ver.1)

Artists:  A B C D E F G H I J K L M N O P Q R S T U V W X Y Z # 

A Donde Vamos A Ir Tabs (ver.1)

Jaguares Tabs
Rating:
0/5 (0 votes)
Hard to play? Try these video lessons and learn fast.
                e|-12~---10*11-----------------------------------|
B|-------------12--12^(14)--9--7-9^(10)(9)-7*9---|
G|-----------------------------------------------|
D|-----------------------------------------------|
A|-----------------------------------------------|
E|-----------------------------------------------|


e|-12~--12^(14)-11-11/12-------------------------|
B|-----------------------12-12/16-16-16-9~~~~----|
G|-----------------------------------------------|
D|-----------------------------------------------|
A|-----------------------------------------------|
E|-----------------------------------------------|

Sabes... la pasión es 
 
  cruel                       No le importa lo q  
e|-----------------------------------------------|
B|-----7-9^(10)(9)-7*9~~~~(9)/14-14~~~~~~~~~~~~--|
G|-----------------------------------------------|
D|-----------------------------------------------|
A|-----------------------------------------------|
E|-----------------------------------------------|
  
  Sufras                      No le importa lo q 
e|-------12-14^(16)(14)-14-12--------------------|
B|----------------------------13-----------------|
G|-----------------------------------------------|
D|-----------------------------------------------|
A|-----------------------------------------------|
E|-----------------------------------------------|

  Llores                        Lo q importa
e|-------12-14^(16)(14)-14-12---------------11~~~|
B|----------------------------12-----------------|
G|-----------------------------------------------|
D|-----------------------------------------------|
A|-----------------------------------------------|
E|-----------------------------------------------|

  es sangrar             Sabes... La soledad es 
e|----------12-10*11-----------------------------|
B|-------------------12--------------------------|
G|-----------------------------------------------|
D|-----------------------------------------------|
A|-----------------------------------------------|
E|-----------------------------------------------|

  fiel                No te cambia por ninguno
e|----10*11-11-11-11--7~~/9~~~~------------------|
B|-----------------------------------------------|
G|-----------------------------------------------|
D|-----------------------------------------------|
A|-----------------------------------------------|
E|-----------------------------------------------|

                  Ni te engaña ni traiciona
e|-12-14^(16)(14)-14-12--------------------------|
B|----------------------13~~~~~~~~~~-------------|
G|-----------------------------------------------|
D|-----------------------------------------------|
A|-----------------------------------------------|
E|-----------------------------------------------|

         Te acompaña       hasta el fin
e|-------------------11~~-11///16~~--------------|
B|-13-13*14-12-----------------------------------|
G|-----------------------------------------------|
D|-----------------------------------------------|
A|-----------------------------------------------|
E|-----------------------------------------------|

A
ay... a donde vamos a ir
F#m
ay... a donde vamos a estar


e|-12~---10*11-----------------------------------|
B|-------------12--12^(14)--9--7-9^(10)(9)-7*9---|
G|-----------------------------------------------|
D|-----------------------------------------------|
A|-----------------------------------------------|
E|-----------------------------------------------|

Sabes... no se quien eres...
  tu                      de q lado  masca tu 
e|--12-14-16-16----------------------------------|
B|-----------16------------------14~~~~~~~~~-----|
G|-----------------------------------------------|
D|-----------------------------------------------|
A|-----------------------------------------------|
E|-----------------------------------------------|

  Lengua            Si te ries cuando duermes
e|------12-14^(16)-14*12-------------------------|
B|-----------------------13~~~~~~----------------|
G|-----------------------------------------------|
D|-----------------------------------------------|
A|-----------------------------------------------|
E|-----------------------------------------------|
     
              Si te importa como sangro
e|-12-14^(16)-14*12---------------11~~~~~~-------|
B|------------------12~~~------------------------|
G|-----------------------------------------------|
D|-----------------------------------------------|
A|-----------------------------------------------|
E|-----------------------------------------------|

  No lo se...
e|-11//16-16~~~~~~~~-----------------------------|
B|-----------------------------------------------|
G|-----------------------------------------------|
D|-----------------------------------------------|
A|-----------------------------------------------|
E|-----------------------------------------------|

A         
Ay... a donde vamos a ir
F#m
Ay... a donde vamos a estar
G                            Bm   A
cerca del fuego dentro de un siglo
G                        Bm    A
entre la peste solo tus manos
G                            Bm   A
cerca del fuego dentro de un siglo
G                          Bm    A
entre la peste ...solo tus manos

Estos son rasgueos un poco rápidos uno arriba, uno abajo
e|-12-12-12--15-15-15--12-12-12-15---------------|
B|-12-12-12--12-12-12--12-12-12-12---------------|
G|-----------------------------------------------|
D|-----------------------------------------------|
A|-----------------------------------------------|
E|-----------------------------------------------|


La otra Guitarra va haciendo los siguientes riffs...

RIFF 1                       RIFF 2                  RIFF 3
sobre E                     Sobre A                   Sobre F#m
e|-------------------|    e|-------------------|   e|--------------|
B|-------------------|    B|-2---2---2--5-4-2--|   B|--------------|
G|-1---1---1--4-3-1--|    G|-2-2---2----2------|   G|----2-2-X-X---|
D|-2-2---2----2------|    D|-------------------|   D|-2*4----------|
A|-------------------|    A|-------------------|   A|--------------|
E|-------------------|    E|-------------------|   E|--------------|

  RIFF 4                    RIFF 5   
Sobre Bm                   Sobre A
e|--------2----------|   e|--------0----------|
B|------3-----3------|   B|------2-----2------|
G|----4---------4----|   G|----2---------2----|
D|-------------------|   D|-------------------|
A|--2----------------|   A|--0----------------|
E|-------------------|   E|-------------------|

Asi va la segudna guitarra

En todo el intro toca el RIFF 1

Sigue RIFF 1
Sabes la pasión es cruel
       C#m (Solo marcados los acordes)
no le importa lo q sufras
       C
ni le importa lo q llores
       B             RIFF 1
lo q importa es sangrar


RIFF1
sabes la soledad es fiel
       C#m
no te cambia por ninguno
        C
ni te engaña ni traiciona
       B              RIFF1
te acompaña hasta el fin


RIFF 2
Ay... a donde vamos a ir
RIFF 3
Ay... a donde vamos a estar


RIFF 1
sabes... no se quien eres tu
      C#m
el q  no masca tu lengua
      C
si te ries cuando duermes
      B
si te importa como sangro
       RIFF 1
no lo se...


RIFF 2
Ay... a donde vamos a ir
RIFF 3
Ay... a donde vamos a estar


G                             RIFF 4  RIFF 5
cerca del fuego dentro de un siglo
G                        RIFF 4  RIFF 5
entre la peste sólo tus manos
G                             RIFF 4  RIFF 5
cerca del fuego dentro de un siglo
G                          RIFF 4  RIFF 5
entre la peste... solo tus manos
G                  RIFF 4  RIFF 5
aaaaaahhhhhh   tus manos...
G                RIFF 4 RIFF 5
aaaaaahhhhhh   

G      RIFF 4  RIFF 5


Espero q les guste, no esta dificil, es sólo de practicar
es lo q hacen las dos guitarras, asi me gusta hacer las 
transcripciones, y si tienen alguna duda o comentario, 
            

comments powered by Disqus
↑ Back to top | Jaguares Tabs for A Donde Vamos A Ir. Lyrics for acoustic guitar and electric guitar. Tablatures and chords are parodies/interpretations of the original songs. You may use it for private study, scholarship, research or language learning purposes only