» » »

God Gave Me Everything Bass tabs (ver.1)

Artists:  A B C D E F G H I J K L M N O P Q R S T U V W X Y Z # 

God Gave Me Everything Bass tabs (ver.1)

Jagger Mick
Rating:
0/5 (0 votes)

Hard to play? Try these video lessons and learn fast.
                Mick Jagger w/ Lenny Kravitz 
"God Gave Me Everything" 

Intro & Chorus 
G---------------------------------------------------------------- 
D----------------2-2-2-2-2-2-2-2--------------------------------- 
A-4-4-4-4-4-4-4-4----------------0-0-0-0-0-0-0-0----------------- 
E------------------------------------------------2-2-2-2-2-2-2-2- 

Verse & Solo 
G----------------------------------------------------------------- 
D-----------------2-2-2-2-2-2-2-2--------------------------------- 
A-4-4-4-4-4-4-4-4-----------------2-2-2-2-2-2-2-2-0-0-0-0-0-0-0-0- 
E----------------------------------------------------------------- 

Bridge - play x2 before solo 
G--------------------------------------------------------------------- 
D--------------------------------------------------------------------- 
A-2-2-2-2-2-2-2-2-2-2-2-2-2-2-2-2-2-0-0-0-0-0-0-0-0-0-0-0-0-0-0-0-0-0- 
E--------------------------------------------------------------------- 

Originaly Tab'd by Nyte 
Questions Comments or General Cursing 
            
Hard to play? Try these video lessons and learn fast. | Correct




comments powered by Disqus
↑ Back to top | Tablatures and chords are parodies/interpretations of the original songs. You may use it for private study, scholarship, research or language learning purposes only