» » »

Jagger Mick, God Gave Me Everithing Tabs (ver.1)

Artists:  A B C D E F G H I J K L M N O P Q R S T U V W X Y Z # 

God Gave Me Everithing Tabs (ver.1)

Jagger Mick Tabs
 Rating:
4/5 (4 votes)
God Gave Me Everithing lessons Tabs too difficult? Try these video lessons and learn fast
                Mick Jagger - God Gave Me Everything

Intro
-----
Riff 1
	    C#5   E5   A5  F#5
	E------------------------|
	B------------------------|
	G----6----9--------------|	2x
	D----6----9----7----4----|
	A----4----7----7----4----|
	E--------------5----2----|

Verse 1
-------
Riff 2
	    C#5   E5   B5   A5
	E------------------------|
	B------------------------|
	G----6----9--------------|	4x
	D----6----9----9----7----|
	A----4----7----9----7----|
	E--------------7----5----|

You Can See It In A Clear Blue Sky
You Can See It In A Woman's Eyes
You Can Hear It In Your Babies Cries
You Can Hear It In Your Lover's Sighs
You Can Touch It In A Grain Of Sand
Yeah Hold It Right There
In The Palm Of Your Hand
Feel It Round You Everyday
And Hear What I've Got To Say

Chorus
------
Riff 1
	    C#5   E5   A5  F#5
	E------------------------|
	B------------------------|
	G----6----9--------------|	2x
	D----6----9----7----4----|
	A----4----7----7----4----|
	E--------------5----2----|

God Gave Me Everything I Want
Come On
I'll Give It All To You
God Gave Me Everything I Want
Come On
I'll Give It All To You


Verse 2
-------
Riff 2
	    C#5   E5   B5   A5
	E------------------------|
	B------------------------|
	G----6----9--------------|	4x
	D----6----9----9----7----|
	A----4----7----9----7----|
	E--------------7----5----|

I Saw It In The Midnight Sun
And I Felt It In The Race I Won
And I Hear It In The Windy Storm
And I Feel It In The Icy Dawn
And I Smell It The Wine I Taste
And I See It In My Father's Face
And I Hear It In A Symphony
And I Feel It In The Love You Show For Me

Chorus
------
Riff 1
	    C#5   E5   A5  F#5
	E------------------------|
	B------------------------|
	G----6----9--------------|	4x
	D----6----9----7----4----|
	A----4----7----7----4----|
	E--------------5----2----|

God Gave Me Everything I Want
Oh Come On
I'll Give It All To You
God Gave Me Everything I Want
Come On
I'll Give It All To You
God Gave Me Everything I Want
I Can't Stop Can't Stop
I'm Still Looking Now
God Gave Me Everthing I Want
Oh Come On
I'll Give It All To You

Bridge
------
Riff 3
	   B5   A5   B5   A5   B5
	E------------------------|
	B------------------------|
	G------------------------|	2x
	D--9----7----9----7----9-|
	A--9----7----9----7----9-|
	E--7----5----7----5----7-|

Crazy You Said
It's All In Your Head
Solo
----
Riff 2
	    C#5   E5   B5   A5
	E------------------------|
	B------------------------|
	G----6----9--------------|	2x
	D----6----9----9----7----|
	A----4----7----9----7----|
	E--------------7----5----|

E-12---------------------------------------------------------------|
B----14--12---14-14p12--13--12--12/14----16--17---17b19r17---------|
G-----------------------------------------------------------13-----|
D------------------------------------------------------------------|
A------------------------------------------------------------------|
E------------------------------------------------------------------|


E------------------------------------------------------------------|
B------------------------------------------------------------------|
G--11--9--9/11----9--11------11/13--13-13-13-13-13---13-13/16------|
D------------------------9-----------------------------------------|
A------------------------------------------------------------------|
E------------------------------------------------------------------|


E------------------------------------------------------------------|
B------------------------------16--17---17-17--17/19--17-19--19b21-|
G--13--13/16---18-18-18-18-18--------------------------------------|
D------------------------------------------------------------------|
A------------------------------------------------------------------|
E------------------------------------------------------------------|

Chorus
------
Riff 1
	    C#5   E5   A5  F#5
	E------------------------|
	B------------------------|
	G----6----9--------------|	8x
	D----6----9----7----4----|
	A----4----7----7----4----|
	E--------------5----2----|

God Gave Me Everything I Want
Oh Come On
I'll Give It All To You
God Gave Me Everything I Want
Come On
I'll Give It All To You			  2x
God Gave Me Everything I Want
I Can't Stop Can't Stop
I'm Still Looking Now
God Gave Me Everthing I Want
Oh Come On
I'll Give It All To You

This is my first tab so dont be rude.
            
Submit corrections

comments powered by Disqus
↑ Back to top | Jagger Mick Tabs for God Gave Me Everithing. Lyrics for acoustic guitar and electric guitar. Tablatures and chords are parodies/interpretations of the original songs. You may use it for private study, scholarship, research or language learning purposes only