» » »

Jacques Brel, Fernand Bass tabs (ver.1)

Artists:  A B C D E F G H I J K L M N O P Q R S T U V W X Y Z # 

Fernand Bass tabs (ver.1)

Jacques Brel Tabs
 Rating:
4/5 (4 votes)
Fernand lessons Tabs too difficult? Try these video lessons and learn fast
                Jacques Brel



Signature 3/4 (1,2,3,1,2,3.... comme une valse)

	Intro

G||--8-----7----8----|--7----8----7----|--8----7----8----|--7----8--------|
D||------------------|-----------------|-----------------|----------------|
A||------------------|-----------------|-----------------|----------------|
E||------------------|-----------------|-----------------|----------------|


	Couplet

G||-------------|---|------------|---|------------|---|------------|---|		|
D||---6---------|---|------------|---|--6---------|---|------------|---|		|
A||-------------|---|--6---------|---|------------|---|--6---------|---|		|
E||-------------|---|------------|---|------------|---|------------|---|		|
											|2X
                  									|
------------|---|------------|---|------------|---|--8----9----8----|--9----8----8---|	|
------------|---|------------|---|------------|---|-----------------|----------------|	|
--7---------|---|------------|---|--4---------|---|-----------------|----------------| 	|
------------|---|--7---------|---|------------|---|-----------------|----------------|	|



G||------------|---|------------|---|------------|---|------------|---|
D||------------|---|------------|---|------------|---|------------|---|
A||------------|---|--4---------|---|--5---------|---|--6---------|---|
E||--4---------|---|------------|---|------------|---|------------|---|


------------|-------6-----|-----------|---|------------|---|--8--9--8--|--9--8-----|
------------|-------------|-----------|---|--8---------|---|-----------|-----------|
--4---------|-------------|-----------|---|------------|---|-----------|--------6--|
------------|-------------|--7--------|---|------------|---|-----------|-----------|



G||------------|----------|------------|----------|------------|----------|----------|
D||------------|----------|------------|----------|--4---------|----6--8--|--9-------|
A||------------|----------|--4---------|----6--7--|------------|----------|----------|
E||--4---------|----6--7--|------------|----------|------------|----------|----------|


---------------|-------------|-------------|------------|-----------|------------|---|
---------------|--11---------|-----13--11--|--9---------|----11--9--|--8---------|---|
---------------|-------------|-------------|------------|-----------|------------|---|
---------------|-------------|-------------|------------|-----------|------------|---|


--7--8--7--|--8--7--8--|--7--8--7--|--8--7--8--|
-----------|-----------|-----------|-----------|
-----------|-----------|-----------|-----------|
-----------|-----------|-----------|-----------| et on reprend au début du couplet
            
Submit corrections

comments powered by Disqus
↑ Back to top | Jacques Brel Bass for Fernand. Lyrics for acoustic guitar and electric guitar. Tablatures and chords are parodies/interpretations of the original songs. You may use it for private study, scholarship, research or language learning purposes only