» » »

Jaco Pastorius, Teen Town Bass tabs (ver.2)

Artists:  A B C D E F G H I J K L M N O P Q R S T U V W X Y Z # 

Teen Town Bass tabs (ver.2)

Jaco Pastorius Tabs
Rating:
4/5 (1 vote)
Teen Town lessons Tabs too difficult? Try these video lessons and learn fast
                aint got a thing to say but greatness
n all u people on this site should learn to read music!!!!
intro (not bass thought it would be cool)

g----18-16-18-16-----18-16-15-13-15-13------20-18-20-18---20-18-
d----18-16-18-16-----18-16-15-13-15-13------20-18-20-18---20-18-
a---------------------------------------------------------------
e---------------------------------------------------------------

g-16-14-16-14-----17-17-
d-16-14-16-14-----------
a-----------------------
e-----------------------

(bass)
g------5---3------------------------2------------------------------5-
d--------------5-------5-7-5---------4--------------------3--5-6-7---
a-----3---3--3-----6h7-------7-5-4----2-2----------3-5-3----0--------
e--------------------------------------------1-4h5-------------------

g-7-8-9---------------------------------------2-----------------------
d--------9-7-9----------------5----------------4---2------------------
a----------------5-5------6h7--5-5------2-3-4---4-2--4~-------5-5-3---
e------------------------------------------------------------------1-1

g-------------------------------------------------------8p7---8-8------
d--------------5-6-7-----------------------------7-6-5------10----10---
a-3-4-5--7-8-9-------6-5-----------0-2-3-4-5-6-7---------------------8-
e------------------------8-5-------------------------------------------

g-----5-7----17-17--------------------------------------------------15-17-17-
d---7-------------------------------7-4--------5-2----------------17---------
a-------------------------3-5-----7-----5-4-------5-3------------------------
e-------------------3-5-3-------------------7----------1-2-3-----------------

g------5---3------------------------2------------------------------5-
d--------------5-------5-7-5---------4--------------------3--5-6-7---
a-----3---3--3-----6h7-------7-5-4----2-2----------3-5-3----0--------
e--------------------------------------------1-4h5-------------------

g-7-8-9---------------------------------------2-----------------------
d--------9-7-9----------------5----------------4---2------------------
a----------------5-5------6h7--5-5------2-3-4---4-2--4~-------5-5-3---
e------------------------------------------------------------------1-1

g-------------------------------------------------------------------
d--------------5-6-7---------------------------5-6-7----------------
a-3-4-5--7-8-9-------6-5-----------3-4-5-7-8-9-------6-5------------
e------------------------8-5-----------------------------8-5--------

g-----------------------------------------------------------------------
d------------------------------2-2-4---2------------------------2-2-4---
a-----------2-2-4~-----0-0-4-4-----------------2-2-4~---0-0-4-4---------
e--0-0--4-4-----------------------------0-0-4-4-------------------------

g---4-3----6-3---------4-----------------------------------------6--------
d--2---5-4----5-------4----4h5-x----6----------------2-4-0----8-6--8-6----
a------------------------7---------4-4---------2-4-2-------------------6~-
e--------------------------------------2----------------------------------
repeat 3 times
g----------------
d--4-4-2-4-4-2-4-
a----------------
e----------------

g------------------
d--------------5-5-
a-------7-----5----
e-------0----5-----
            
Submit corrections

comments powered by Disqus
↑ Back to top | Jaco Pastorius Bass for Teen Town. Lyrics for acoustic guitar and electric guitar. Tablatures and chords are parodies/interpretations of the original songs. You may use it for private study, scholarship, research or language learning purposes only