>
 >
Slang

Slang Bass Tabs

Jaco Pastorius - Slang chords, tabs, tablatures, lyrics

Guitar lessons | Add/correct | Request | Top 50 tabs Artists:  A B C D E F G H I J K L M N O P Q R S T U V W X Y Z 0-9

Slang Bass Tabs – Jaco Pastorius

CD, Sheet music, Poster

Do you like Slang? Share with your friends now
Bass Tabs
Bass Tablature for Slang--Jaco Pastorius

G---------------------------2----7-7-5-7---<5>--------<7>---<5>----
D---------------------------0--------------<5>--1/3-3-<7>---<5>----
A----------1-1/3------------------------------------------3-----1--
E--1---1-3--------0--3--1----------------0-------------------------

G-----------------------------really-------------6-7-9--<7>--
D--5-------1/3-2-------4---6----big------6-7-8-9--------<7>--
A----6-6-----------0-4---6-----hard----7---------------------
E------------------------------solo--------------------------

w/sampler: MAIN RIFF
G--16-16-18-16--16-16-18-16----------------------------------------X--
D---------------------------16-16-18-16--16-16-18-16---------------X--
A----------------------------------------------------17-17-19-17---X--
E------------------------------------------------------------------X--

G-------9--------11/13-11-------11------13-------------------9-----
D--9h11---11--------------14-12----14------11-0-9-9------------11--
A---------------------------------------------------7-7-7--7-------
E------------------------------------------------------------------

G--18-16---9/11-11-11-9-9--16-13-14-----11/13-------11-----
D---------------------------------------------14-12----14--
A----------------------------------------------------------
E----------------------------------------------------------

G--13-----------------------------------14-----14/16----/19-18-16-16-18-16------------
D-----11---9--------9-------11h12----11------0-14/16-----------------------16-18-/18--
A--------7---7-7--7---7-7---------14--------------------------------------------------
E-------------------------------------------------------------------------------------

G--------------------------------------------<4>--9-7-----7----------
D--16/18--18p16-\14-14-----------------------<4>------7h9---9-7-6----
A---------------------------------7-7-----------------------------7--
E-----------------------4--5--7-7--------0---------------------------

G------7-9-9--0-9-7----------------------
D--7h9---------------9\7--9-7------------
A-----------------------------9-7---9-7--
E---------------------------------9------

w/Distortion
G----------------16-16/18--------------------------6/7-6-4-4/6---------
D-------------------------16p14h16--------14----\---------------6-6/9--
A-----------------------------------14/16------------------------------
E--0------0--0---------------------------------------------------------

G-------9-9/11-9-----------------11p9h11-------9---\--6/7-6-4-4/6---------
D--9/11-----------------9/11-11-----------9/11---------------------6-6/9--
A-------------------------------------------------------------------------
E----------------0--------------------------------------------------------

G-------9--9/11----------------------------------------------
D--9/11------------------------------------------------------
A------------------/5----------------------------------------
E---------------0--------0--\--

Clean								w/distortion
G--11/13-11-------11-----*           *--11/13-11-------11-14----------<4>------
D-----------14-12----14--* Repeat 2X *-----------14-12----------------<4>------
A------------------------*    then   *-----------------------------------------
E------------------------*           *-----------------------------0-----------

Clean     harm.................             harm..................
G--<4>-----4---5-----------4-4---------------4---5-----------4--5-----(2&6 means holding
D----------4-3---4---5-----4-5---------------4-3---4---5-----4---4---- down the 2nd fret
A----------------5-3---2&6-------0---0-2-3---------5-3---2&6------4--- while playing a 
E-----0----------------------------3---------------------------------- harmonic on the 6th)

G--16-18----16-14-13-----x-<4>----11-9-8----8-8-8---<5>------
D------------------------x---------------11----------<4>-----
A------------------------x----------------------------<4>----
E--------0-----------0---x------------------------0-------0--

   really loud
G------2------------------------------------
D------2------------------------------------
A------0---------feedback:A-----------------
E------0-------------------------0----------





Comments


Popular Jaco Pastorius tabs & chords
Cha Cha Bass Tabs
Chicken Bass Tabs
Continuum 2 Bass Tabs
Continuum Head Bass Tabs
Donna Lee Bass Tabs
Invite Bass Tabs
Okonkole Y Trompa Bass Tabs
Portrait Of Tracy 2 Bass Tabs
Three Views Of A Secret Bass Tabs
Three Views Of A Secret Chords


Song lyrics



↑ Back to top | Tablatures and chords are parodies/interpretations of the original songs. You may use it for private study, scholarship, research or language learning purposes only
© 2014 AZChords.com Contact us | Privacy policy | DMCA | Add/correct tabs | Request tabs | Top 50 tabs