» » »

Jaco Pastorius, Continuum Head Bass tabs (ver.1)

Artists:  A B C D E F G H I J K L M N O P Q R S T U V W X Y Z # 

Continuum Head Bass tabs (ver.1)

Jaco Pastorius Tabs
Rating:
0/5 (0 votes)
Continuum Head lessons Tabs too difficult? Try these video lessons and learn fast
                #  = barline
<> = harmonic
h  = hammer on
p  = pull off
/  = slide up
\  = slide down
|  = if notes are in these lines they are played at the same time

G|-----|<9>|-#---------------------#--------------------#
D|-----|<9>|-#-------9-9h11--------#-------9-/13--------#
A|-----|<9>|-#-11-p9---------------#-11-p9--------------#
E|-0-0-------#--------------0--0-0-#-------------0--0-0-#

G|----------------------------------------#
D|--------9-9h11-/16-14-\11---------------#
A|-11-p9--------------------0--0--4-6-7---#
E|--------------------------------------0-#

G|-------------------------#-----------------------#
D|-------9-9h11-------13---#-------9-/13------11---#
A|-11-p9-------------------#-11-p9-----------------#
E|--------------0--11----0-#-------------0--9----0-#

G|----------------------/13----13p12-#------------13-14-16-#
D|-------9-9h11-/16-14---------------#-13-14-16------------#
A|-11-p9--------------------13-------#---------------------#
E|-----------------------------------#----------0----------#

G|-|16|-------------------13------------12------#
D|-|16|h18-\16-14-16-11--------11-10-------10---#
A|----------------------------------------------#
E|----------------------11-----------10-------0-#

G|-------------------#------------------------#
D|-------------------#------------------------#
A|-11-12-14--12-11-9-#-9-9------10--7---/11---#
E|-------------------#-----10-7-------8-----0-#

G|-------------------------#-----------------------#
D|-------9-9h11-------13---#-------9-/13------11---#
A|-11-p9-------------------#-11-p9-----------------#
E|--------------0--11----0-#-------------0--9----0-#

G|-----------------------------------------#
D|-------9-9h11-/16-14-\11---11------------#
A|-11-p9-------------------0----0--4-6-7---#
E|---------------------------------------0-#

G|----------------------16-16h18-#---------------------16-/20-#
D|-------9-9h11--18-p16----------#-------9-/13--18-p16--------#
A|-11-p9-------------------------#-11-p9----------------------#
E|-------------------------------#----------------------------#


G|----------------------/13----13p12-#----------13-14-16-----#
D|-------9-9h11-/16-14---------------#-13-14-16--------------#
A|-11-p9--------------------13-------#-----------------------#
E|-----------------------------------#-------------------0-0-#


G|-|16|-------------------13---------12------#-------------------#--------------------#
D|-|16|h18-\16-14-16-------------------------#-------------------#--------------------#
A|-------------------16------16-15-----------#-11-12-14--12-11-9-#-9------10--7---/11-#
E|----------------------0----------0----15-0-#-------------------#---10-7-------8-----#

Fin?
            
Submit corrections

comments powered by Disqus
↑ Back to top | Jaco Pastorius Bass for Continuum Head. Lyrics for acoustic guitar and electric guitar. Tablatures and chords are parodies/interpretations of the original songs. You may use it for private study, scholarship, research or language learning purposes only