» » »

Headed For Destruction Tabs (ver.1)

Artists:  A B C D E F G H I J K L M N O P Q R S T U V W X Y Z # 

Headed For Destruction Tabs (ver.1)

Jackyl
Rating:
0/5 (0 votes)

Hard to play? Try these video lessons and learn fast.
                (Intro)
Artist- Jackyl
Song- Headed For Destruction
Album- Push Comes to Shove 

Intro
-------------------------------------------|
-------------------------------------------|
-------------------------------------------|
---------------5----------------------7--5-|
---(5)-(5)-5h7---7-5h7p5-7-7--5h7p0---7--5-|
--------------------------------------5--3-|
( )- Muffled                              x4

````````````````````````````````````````````````
----------------------------------------------|
----------------------------------------------|
----------------------------------------------|
-----------------------------------------7--5-|
-2--2--2----22-x-2-2-2----22-x-2-2-2-----7--5-|
-0--0--3p0--00-x-0-0-3p0--00-x-0-0-3p0---5--3-|
 .  .  . .  . .  .  . .  . .  .  . .PM       x3

-----------------------------------------------|
-----------------------------------------------|
-----------------------------------------5-----|
-----------------------------------------5--5/-|
-2--2--2----22-x-2-2-2----22-x-2-2-2-----3--5/-|
-0--0--3p0--00-x-0-0-3p0--00-x-0-0-3p0------3/-|
 .  .  . .  . .  .  . .  . .  .  . .PM 

-------------------------------------------------|
-------------------------------------------------|
----------------------7x-7x-7x-7x-7777-7/-8/-9---|
-999999-99-999-8/7-x--7x-7x-5x-5x-7777-7/-8/-9---|
-999999-99-999-8/7-x--5x-5x-5x-5x-5555-5/-6/-7---|
-777777-77-777-6/5-x-----------------------------|
eND
            
Hard to play? Try these video lessons and learn fast. | Correct




comments powered by Disqus
↑ Back to top | Tablatures and chords are parodies/interpretations of the original songs. You may use it for private study, scholarship, research or language learning purposes only