» » »

Jackyl, Down On Me Tabs (ver.5)

Artists:  A B C D E F G H I J K L M N O P Q R S T U V W X Y Z # 

Down On Me Tabs (ver.5)

Jackyl Tabs
Rating:
3/5 (4 votes)
Down On Me lessons Tabs too difficult? Try these video lessons and learn fast
                #------------------------------------------------------------------------------##
#


Jackyl "Down On Me

Intro/Little Riff that comes up some times
  D5               C5    Do that little Riff with a Delay or Reverb.
|-------------------------------------------|
|-------------------------------------------|
|-7-7-7-7-7-7-7-7-5-5-5-5-5-5-5-5-----------|
|-7-7-7-7-7-7-7-7-5-5-5-5-5-5-5-5-----------|
|-5-5-5-5-5-5-5-5-3-3-3-3-3-3-3-3-----------|
|-------------------------------------------|

Main Riff
  B5      F#5    E5
|-------------------------------------------|
|-------------------------------------------|
|---------11-11---9----9-9-9----------------|
|-4--4-4--11-11---9----9-9-9----------------|
|-4--4-4---9--9---7----7-7-7----------------|
|-2--2-2------------------------------------|

Solo
|-------------------------------------------|
|-------------------------------------------|
|-I have no clue----------------------------|
|-------------------------------------------|
|-------------------------------------------|
|-------------------------------------------|

Bridge                        Let Ring *
  C5  D5  E5  D5  C5  D5  E5  F#5
|---------------------------------------------------------|
|---------------------------------------------------------|
|-5---7---9---7---5---7---9---11-11-11-11-11--------------|
|-5---7---9---7---5---7---9---11-11-11-11-11--------------|
|-3---5---7---5---3---5---7----9--9--9--9--9--0*----------|
|---------------------------------------------------------|

End Riff
P.M.
|-------------------------------------------|
|-------------------------------------------|
|-4-----------------------------------------|
|-4--just repeat til' songs over------------|
|-2-----------------------------------------|
|-------------------------------------------|

Lyrics
First Verse
        All the things i see in you
        All the things that i know that are true
        And when the light in the morning
        Comes shining through
        I see, I see
Chorus
        I see the sun shining
        Down on me
        I feel the heat of loves flame
        Down On Me
        I love the thought of you coming
        Down on me
        And I'm so wet from Love Raining
        Down on me
        Down on me
        Down on me
Verse 2
        All the things you meant to me
        All the things i want us to be
        And when the man in the moon
        Looks straight at you
        I see, I see
Chorus
        I see the sun shining
        Down on me
        I feel the heat of loves flame
        Down On Me
        I love the thought of you coming
        Down on me
        And I'm so wet from Love Raining
        Down on me
        Down on me
        Down on me
Bridge
        And you're a new kinda way
        Thats getting stronger everyday
        Get on the big foot, and keep it on top
        One things for certain, it ain't never gonna stop
Chorus
        I see the sun shining
        Down on me
        I feel the heat of loves flame
        Down On Me
        I love the thought of you coming
        Down on me
        And I'm so wet from Love Raining
        Down on me
        Down on me
        Down on me

Send Questions, Comments, cr*p, anything to

I'm not like them but i can pretend-
                                    Kurt Cobain
                                    1967-1994
            

comments powered by Disqus
↑ Back to top | Jackyl Tabs for Down On Me. Lyrics for acoustic guitar and electric guitar. Tablatures and chords are parodies/interpretations of the original songs. You may use it for private study, scholarship, research or language learning purposes only