» » »

Jackyl, American Band Tabs (ver.1)

Artists:  A B C D E F G H I J K L M N O P Q R S T U V W X Y Z # 

American Band Tabs (ver.1)

Jackyl Tabs
 Rating:
4/5 (4 votes)
American Band lessons Tabs too difficult? Try these video lessons and learn fast
1
                -------------------------------------------------------------------------------
-------------------------------------------------------------------------------

Tuning:standard

intro and chorus
e|---------------------------------------------------------------------------|
B|---------------------------------------------------------------------------|
G|--7--7--7--7--7--7--7--7--7--7--7--7--7--7--7--7--7--7---------------------|
D|--7--7--7--7--7--7--7--7--7--7--7--7--7--7--7--7--7--7---------------------|
A|--5--5--5--5--5--5--5--5--5--5--5--5--5--5--5--5--5--5---------------------|
E|---------------------------------------------------------------------------|

e|-----------------------------------------------------------------------------|
B|-----------------------------------------------------------------------------|
G|--5--5--5--5--5--5--5--5--5--5--5--5--5--5--5--5--5--5-----------------------|
D|--5--5--5--5--5--5--5--5--5--5--5--5--5--5--5--5--5--5-----------------------|
A|--3--3--3--3--3--3--3--3--3--3--3--3--3--3--3--3--3--3-----------------------|
E|-----------------------------------------------------------------------------|

e|---------------------------------------------------------------------------|
B|---------------------------------------------------------------------------|
G|--3--3--3--3--3--3--3--3-/-5--5--5--5--5--5--5--5-/-7---7---7---7----------|
D|--3--3--3--3--3--3--3--3-/-5--5--5--5--5--5--5--5-/-7---7---7---7----------|
A|--1--1--1--1--1--1--1--1-/-3--3--3--3--3--3--3--3-/-5---5---5---5----------|
E|---------------------------------------------------------------------------|

e|---------------------------------------------------------------------------|
B|---------------------------------------------------------------------------|
G|--5---5---5---5------------------------------------------------------------|
D|--5---5---5---5------------------------------------------------------------|
A|--3---3---3---3------------------------------------------------------------|
E|---------------------------------------------------------------------------|
      VERSE  play 3x's
e|-----------------------------------------------------------------------------|
B|-----------------------------------------------------------------------------|
G|--7-77--xxxxxx-7-77-xxxxxx--5-xx-55--5-x--5/10--9--5-------------------------|
D|--7-77--xxxxxx-7-77-xxxxxx--5-xx-55--5-x--5/10--9--5-------------------------|
A|--5-55--xxxxxx-5-55-xxxxxx--3-xx-33--3-x--3/8---7--3-------------------------|
E|-----------------------------------------------------------------------------|
      PRE-CHORUS (also played under solo)
e|------------------------------------------------------------------------------|
B|------------------------------------------------------------------------------|
G|--------------------7-7-7-7-7-7-7-7---5-5-5-5-5-5-5-5---7-7-7-7-7-7-7-7-------|
D|--5-5-5-5-5-5-5-5---7-7-7-7-7-7-7-7---5-5-5-5-5-5-5-5---7-7-7-7-7-7-7-7-------|
A|--5-5-5-5-5-5-5-5---5-5-5-5-5-5-5-5-0-3-3-3-3-3-3-3-3-0-5-5-5-5-5-5-5-5-------|
E|--3-3-3-3-3-3-3-3-0-----------------------------------------------------------|

e|---------------------------------------------------------------------------|
B|---------------------------------------------------------------------------|
G|--------------------7-7-7-7-7-7-7-7----------------------------------------|
D|--5-5-5-5-5-5-5-5---7-7-7-7-7-7-7-7---3---3---3---3----5---5---5---5-------|
A|--5-5-5-5-5-5-5-5---5-5-5-5-5-5-5-5---3---3---3---3----5---5---5---5-------|
E|--3-3-3-3-3-3-3-3-0-------------------1---1---1---1----3---3---3---3-------|
| /  slide up
| \  slide down
| h  hammer-on
| p  pull-off
| ~  vibrato
| +  harmonic
| x  Mute note
===============================================================================
            
Submit corrections

comments powered by Disqus
↑ Back to top | Jackyl Tabs for American Band. Lyrics for acoustic guitar and electric guitar. 1 Tablatures and chords are parodies/interpretations of the original songs. You may use it for private study, scholarship, research or language learning purposes only