» » »

Sixteen Saltines Tabs (ver.4)

Artists:  A B C D E F G H I J K L M N O P Q R S T U V W X Y Z # 

Sixteen Saltines Tabs (ver.4)

Jack White
Rating:
0/5 (0 votes)

Hard to play? Try these video lessons and learn fast.
                

/ slide up
\ slide down

Standard Tuning

-----|---------------------|--|---------------------------------|-------------|
-----|---------------------|--|---------------------------------|-------------|
-----|---------------------|--|---5---5---5---5---7---7---7---7-|-------------|
-----|-9-9-5-5---7-7-9-9---|--|-5-5-5-5-5-5-5-5-7-7-7-7-7-7-7-7-|-------------|
-----|-7-7-5-5---7-7-9-9---|--|-3---3---3---3---5---5---5---5---|-------------|
-----|-x-x-x-x---x-x-x-x---|--|-x---x---x---x---x---x---x---x---|-------------|
    Verse     m         m

-----|--------------------|--|------------------------------------------------|
-----|--------------------|--|------------------------------------------------|
-----|--------------------|--|------------------------------------------------|
-----|--------------------|--|------------------------------------------------|
-----|-----5-0-------5-7--|--|------------------------------------------------|
-----|-0-3-------5-3------|--|------------------------------------------------|
    Interlude/Chorus

-----|------------------------|-----------------------------------------------|
-----|------------------------|-----------------------------------------------|
-----|------------------------|-----------------------------------------------|
-----|-2--2--2--2--2--2--2--2-|-----------------------------------------------|
-----|-2--2--2--2--2--2--2--2-|-----------------------------------------------|
-----|-x--x--x--x--x--x--x--x-|-----------------------------------------------|
    Bridge

-----|-----------------------------------------------|--|-----------|---------|
-----|-----------------------------------------------|--|-----------|---------|
-----|----------------------------------19-19-19-21\-|--|-0-0--0-0--|---------|
-----|----------17-17-17-19/21-21-21-21--------------|--|-2-2--5-5--|---------|
-----|-19-19-19--------------------------------------|--|-----------|---------|
-----|-----------------------------------------------|--|-----------|---------|
    Bridge/Chorus/End                                     End
            
Hard to play? Try these video lessons and learn fast. | Correct




comments powered by Disqus
↑ Back to top | Tablatures and chords are parodies/interpretations of the original songs. You may use it for private study, scholarship, research or language learning purposes only