» » »

Never Far Away Tabs (ver.2)

Artists:  A B C D E F G H I J K L M N O P Q R S T U V W X Y Z # 

Never Far Away Tabs (ver.2)

Jack White
Rating:
3/5 (1 vote)

Tabs too difficult? Try these video lessons and learn fast.
                Never Far Away
Jack White
Tuning: Standard (Eadgbe)

Part I

e|-4-2------0-|
b|------------|
g|-4-2-0h1p0--|
d|------------|
a|------------|
E|------------|

(repeat 2x)

Part II

e|-7-5-4-44--|-7-77--6-66--5-55--4-44--|-7-5-4-44--4-2-|------0-|
b|-----------|-------------------------|---------4-----|--------|
g|-7-5-4---4-|-7---7-6---6-5---5-4---4-|-7-5-4-----4-2-|-0h1p0--|
d|-----------|-------------------------|---------------|--------|
a|-----------|-------------------------|---------------|--------|
E|-----------|-------------------------|---------------|--------|

(rep. 2x)                                              (rep. 4x)

Pre-Chorus

e|-0-2-4-5-7-9/-|
b|--------------|
g|-0-2-4-5-7-9/-|
d|--------------|
a|--------------|
E|--------------|

Chorus

   A               C         B           A               G      F#    E
e|-------------------------------------|-----------------------------------0-|------0-|
b|---------2-----------1---------------|---------2---------------------------|--------|
g|---2-------2-------0---0-------4-----|---2-------2------------------0h1p0--|-0h1p0--|
d|-----2-------2---------------4---4---|-----2-------2-------0------0--------|--------|
a|-0-----0-------0-3-------3-2-------2-|-0-----0-------0---2------0----------|--------|
E|-------------------------------------|-----------------3------2-----0------|--------|

(rep. 3x)

Ending
            A
e|------1-|---|
b|--------|-2-|
g|-0h1p0--|-2-|
d|--------|-2-|
a|--------|-0-|
E|--------|---|

Song Order:

Part I
Part II
Part I
Part II
Pre-Chorus
Chorus
Part I
Part II
Part I
Part II
Pre-Chorus
Chorus
Part I
Part II
Part I
Part II
Ending
            
Tabs too difficult? Try these video lessons and learn fast.


comments powered by Disqus
↑ Back to top | Tablatures and chords are parodies/interpretations of the original songs. You may use it for private study, scholarship, research or language learning purposes only