» » »

Never Far Away Tabs (ver.1)

Artists:  A B C D E F G H I J K L M N O P Q R S T U V W X Y Z # 

Never Far Away Tabs (ver.1)

Jack White
Rating:
5/5 (3 votes)

Hard to play? Try these video lessons and learn fast.
                -------------------------------------------------------------------------------
-------------------------------------------------------------------------------

Tuning:

e|-4--2-----0-----4--2-------0----|------------------------------------------|
B|--------------------------------|------------------------------------------|
G|-4--2--0h1--1---4--2----0h1--1--|------------------------------------------|
D|--------------------------------|------------------------------------------|
A|--------------------------------|------------------------------------------|
E|------------------0--0--0-----0-|------------------------------------------|


e|-7--5--4--4-4---7--5--4--4---|---------------------------------------------|
B|-----------------------------|---------------------------------------------|
G|-7--5--4-4--4---7--5--4-4--4-|---------------------------------------------|
D|-----------------------------|---------------------------------------------|
A|-----------------------------|---------------------------------------------|
E|--0--0-0--0--0---0---0--0----|---------------------------------------------|


e|-7-7--7---6-6--6---5-5--5---4-4--4---7--5---4-4--4----4---2-------0---0....|
B|---------------------------------------------------------------------------|
G|-7--7--7--6--6--6--5--5--5--4--4--4--7--5---4--4--4---4---2---0h1---1---1...|
D|---------------------------------------------------------------------------|
A|---------------------------------------------------------------------------|
E|---0--0-----0--0-----0--0----0---0----0---0-------------0---0--------------|

                         
                     Fingerpick around these chords for chorus
e|-0--2--4--5--7--9-|-0------------------------------------------------------|
B|------------------|-2-----1------------------------------------------------|
G|-1--2--4--5--7--9-|-2-----0----0-------------------------------------------|
D|------------------|-2-----2----0-------------------------------------------|
A|------------------|-0-----3----2-------------------------------------------|
E|--0--0---0--0-----|------------3-------------------------------------------|

  The chorus ends picking around these chords
e|-------------------0-------------------------------------------------------|
B|---------------------------------------------------------------------------|
G|-2----0----2-----1---1-----------------------------------------------------|
D|-2----0----0---------------------------------------------------------------|
A|-0----2----0---------------------------------------------------------------|
E|------3----2---------------------------------------------------------------|



| /  slide up
| \  slide down
| h  hammer-on
| p  pull-off
| ~  vibrato
| +  harmonic
| x  Mute note
===============================================================================
            
Hard to play? Try these video lessons and learn fast. | Correct




comments powered by Disqus
↑ Back to top | Tablatures and chords are parodies/interpretations of the original songs. You may use it for private study, scholarship, research or language learning purposes only