» » »

Love Interruption Tabs (ver.1)

Artists:  A B C D E F G H I J K L M N O P Q R S T U V W X Y Z # 

Love Interruption Tabs (ver.1)

Jack White
Rating:
3/5 (3 votes)

Hard to play? Try these video lessons and learn fast.
                Standard Tuning, No Capo

Chords included in the song
e---0--3--5--3--|
b---0--3--5--5--|
g---1--4--6--5--|
D---2--5--7--5--|
A---2--5--7--3--|
E---0--3--5-----|


Intro

e-|---0--0-0----0--| x4
b-|---0--0-0----0--|
g-|---1--1-1-1--1--|
D-|---2------2--2--|
A-|2--2------2--2--|
E-|0--0------0--0--|

use that same pattern throughout the verse

Verse 1

e-|-0------------|-3------------------|-5----------------------|-0---------|
b-|-0------------|-3------------------|-5----------------------|-0---------|
g-|-1------------|-4------------------|-6----------------------|-1---------|
D-|-2------------|-5------------------|-7----------------------|-2---------|
A-|-2------------|-5------------------|-7----------------------|-2---------|
E-|-0------------|-3------------------|-5----------------------|-0---------|
   I want love to, roll me over slowly, stick a knife inside me and twist it all around

e-|-0------------|-3------------------|-5----------------------|-0---------|
b-|-0------------|-3------------------|-5----------------------|-0---------|
g-|-1------------|-4------------------|-6----------------------|-1---------|
D-|-2------------|-5------------------|-7----------------------|-2---------|
A-|-2------------|-5------------------|-7----------------------|-2---------|
E-|-0------------|-3------------------|-5----------------------|-0---------|
 I want love to, grab my fingers gently, slam them in a doorway put my face into the ground

e-|-0------------|-3------------------|-5----------------------|-0---------|
b-|-0------------|-3------------------|-5----------------------|-0---------|
g-|-1------------|-4------------------|-6----------------------|-1---------|
D-|-2------------|-5------------------|-7----------------------|-2---------|
A-|-2------------|-5------------------|-7----------------------|-2---------|
E-|-0------------|-3------------------|-5----------------------|-0---------|
 I want love to, murder my own mother and, take her off to somewhere, like hell or up above

e-|-0------------|-3------------------|-5----------------------|-0---------|
b-|-0------------|-3------------------|-5----------------------|-0---------|
g-|-1------------|-4------------------|-6----------------------|-1---------|
D-|-2------------|-5------------------|-7----------------------|-2---------|
A-|-2------------|-5------------------|-7----------------------|-2---------|
E-|-0------------|-3------------------|-5----------------------|-0---------|
And I want love to, change my friends to enemies, change my friends to enemies, show me 
how its all my fault

Chorus
e-|-0------------|-3------------------|-5---------|-5----------------------|
b-|-0------------|-3------------------|-7---------|-5----------------------|
g-|-1------------|-4------------------|-7---------|-6----------------------|
D-|-2------------|-5------------------|-7---------|-7----------------------|
A-|-2------------|-5------------------|-5---------|-7----------------------|
E-|-0------------|-3------------------|-----------|-5----------------------|
    And I wont let love disrupt,        corrupt or interrupt me

e-|-0------------|-3------------------|-5---------|-5----------------------|
b-|-0------------|-3------------------|-7---------|-5----------------------|
g-|-1------------|-4------------------|-7---------|-6----------------------|
D-|-2------------|-5------------------|-7---------|-7----------------------|
A-|-2------------|-5------------------|-5---------|-7----------------------|
E-|-0------------|-3------------------|-----------|-5----------------------|
    And I wont let love disrupt,        corrupt or interrupt me

e-|-0------------|-3------------------|-5---------|-5----------------------|
b-|-0------------|-3------------------|-7---------|-5----------------------|
g-|-1------------|-4------------------|-7---------|-6----------------------|
D-|-2------------|-5------------------|-7---------|-7----------------------|
A-|-2------------|-5------------------|-5---------|-7----------------------|
E-|-0------------|-3------------------|-----------|-5----------------------|
    And I wont let love disrupt,        corrupt or interrupt me anymore

Verse 2
I want love to
Walk right up and bite me
Grab a hold of me and fight me
Leave me dying on the ground

And I want love to
Split my mouth right open and
Cover up my ears and
never let me hear a sound

I want love to
Forget that you remembered me
Or how had defended me
When everybody tore me down

And I want love to
Change my friends to enemies
Change my friends to enemies
And show me how its all my fault

Chorus
And I wont let love disrupt, corrupt or interrupt me
And I wont let love disrupt, corrupt or interrupt me
And I wont let love disrupt, corrupt or interrupt me
Anymore

End

Here is the trumpet sounds

e-|-0--3--7--5-3-5-----|
b-|--------------------|
g-|--------------------|
D-|--------------------|
A-|--------------------|
E-|--------------------|
            
Hard to play? Try these video lessons and learn fast. | Correct




comments powered by Disqus
↑ Back to top | Tablatures and chords are parodies/interpretations of the original songs. You may use it for private study, scholarship, research or language learning purposes only