» » »

Im Shakin Tabs (ver.3)

Artists:  A B C D E F G H I J K L M N O P Q R S T U V W X Y Z # 

Im Shakin Tabs (ver.3)

Jack White
Rating:
0/5 (0 votes)

Hard to play? Try these video lessons and learn fast.
                We all know Jack messes around with the notes so this is just the basics. It's 
pretty easy; just repeating the same thing... Enjoy!!! 


|-------------------------------------|
|-------------------------------------|
|-------------------------------------|  (X2) 
|------0-2------0-2------0-2---5-2----|
|----2------1-2------1-2----------2---|
|----------------------------------0--|


*|--------------------------------------------------------------|
 |---------------------------------------------------2----------|
 |--------1------------------------------------------2----------|
 |--------2------------------------------------------2----------|
 |--------2------------------------------------------0----------|
 |--------0-----------------------------------------------------|

 When you touch my hand and talk sweet talk, I got a knockin in my knees and wobble in my walk 

         |---------------------------------------|
         |---------------------------------------|
         |---------------------------------------| 
         |-------0-2--------0-2-----0-2---5-2----|
         |-----2---------1-2-----------------2---|
         |------------------------------------0--|

and Im tremblin           



*(Repeat for next verse) 



**|------------------------------------------------------------|
  |-----------------------------2------------------------------|
  |--1--------------------------2------------------------------|
  |--2--------------------------2------------------------------|
  |--2--------------------------0------------------------------|
  |--0---------------------------------------------------------|
   Early in the morning time. Late in the middle of the night. 


|------------------------------------------------------------------------|
|-----2------------------------------------------------------------------|
|-----2------------------------------------------------------------------|
|-----2---------------------------------------5--------------------------|
|-----0---------------------------------------5--------------------------|
|---------------------------------------------3--------------------------|
   Whenever this chill comes over me, I wanna hug you with all of my might

                         |----------------------------------------|
                         |----------------------------------------|
                         |----------------------------------------|   (X2)
                         |------0-2--------0-2------0-2----5-2----|
                         |----2---------1-2------1-2----------2---|
                         |-------------------------------------0--|
Thats right, and Im sweatin


*(Repeat for next two verses)



(Solo): 

|-3-0---------3--------------------------------0----|
|-----3-0----------3b-3b-3b-3b-3b-3b-3b-3r-1--------|
|---------2-0--------------------------------2------|
|---------------------------------------------------|
|---------------------------------------------------|
|---------------------------------------------------|

|-5b-5b-5b-5-3---3------3-5b-5b-5b-5b-5b-5b-3-3--5b-5b-5b-5b-5b-5b-5b-3----|
|-------------5------5-------------------------------------------------5-5-|
|--------------------------------------------------------------------------|
|--------------------------------------------------------------------------|
|--------------------------------------------------------------------------|
|--------------------------------------------------------------------------|


**(Repeat for next two verses)


|-------------------------------------|
|-------------------------------------|
|-------------------------------------|  (X2) 
|------0-2------0-2------0-2---5-2----|
|----2------1-2------1-2----------2---|
|----------------------------------0--|



|-----------|
|-----------|
|-----------|
|----0-2----|
|---2-------|
|-----------|



See. Easy. 

If you get confused, just let me know. 
            
Hard to play? Try these video lessons and learn fast. | Correct




comments powered by Disqus
↑ Back to top | Tablatures and chords are parodies/interpretations of the original songs. You may use it for private study, scholarship, research or language learning purposes only