» » »

Jack White, Im Shakin Tabs (ver.1)

Artists:  A B C D E F G H I J K L M N O P Q R S T U V W X Y Z # 

Im Shakin Tabs (ver.1)

Jack White Tabs
 Rating:
4/5 (4 votes)
Im Shakin lessons Tabs too difficult? Try these video lessons and learn fast
                Band: Jack white
Tunning: Standard

|---------------------------------------|
|---------------------------------------|
|---------------------------------------|
|---0-2------0-2--------0-2---5p2-0-----| x2
|-2------0h2-------0h2------------------|
|-----------------------------------0---|

|-------------------|
|-------------------|
|---------1---------|
|---------2---------|
|---------2---------|
|---------0---------|
When your touching my hand and talk sweet talk, I got a knockin in my knees and a wabble 
to my walk. And Im tremlin'

|---------------------------------------|
|---------------------------------------|
|---------------------------------------|
|---0-2------0-2--------0-2---5p2-0-----|
|-2------0h2-------0h2------------------|
|-----------------------------------0---|
Thats right, you got me tremblin



|-------------------|
|-------------------|
|---------1---------|
|---------2---------|
|---------2---------|
|---------0---------|
When you take me in your arms and talk romance, my heart start doin that st.rita dance. 
And im ventin'

|---------------------------------------|
|---------------------------------------|
|---------------------------------------|
|---0-2------0-2--------0-2---5p2-0-----|
|-2------0h2-------0h2------------------|
|-----------------------------------0---|



|-----------------------------------|
|---------------------------2-------|
|---------1-----------------2-------|
|---------2-----------------2-------|
|---------2-----------------0-------|
|---------0-------------------------|
Early in the morning time. Late in the middle of the night



|-------------------------------------------------------------|
|---2---------------------------------------------------------|
|---2---------------------------------------------------------|
|---2--------------------------------------5------------------|
|---0--------------------------------------5------------------|
|------------------------------------------3------------------|
Whenever this chill comes over me, I wana hug with all my might, thats right. and Im sweatin'

|---------------------------------------|
|---------------------------------------|
|---------------------------------------| x2
|---0-2------0-2--------0-2---5p2-0-----|
|-2------0h2-------0h2------------------|
|-----------------------------------0---|


|-----------------------------------------------------|
|---------------------------------------------2-------|
|---------1-----------------------------------2-------|
|---------2-----------------------------------2-------|
|---------2-----------------------------------0-------|
|---------0-------------------------------------------|
A chill in a fever so Ive been told, Makes your head spin around and your feet run cold

|---------------------------------------|
|---------------------------------------|
|---------------------------------------|
|---0-2------0-2--------0-2---5p2-0-----|
|-2------0h2-------0h2------------------|
|-----------------------------------0---|



|-------------------------------------------------------------|
|-----------------------------------------------------2-------|
|---1-------------------------------------------------2-------|
|---2-------------------------------------------------2-------|
|---2-------------------------------------------------0-------|
|---0---------------------------------------------------------|
I feel like I been run right through the mill, And I can't move around and I can't stand 
still. Im Bo Diddley


|---------------------------------------|
|---------------------------------------|
|---------------------------------------| x2
|---0-2------0-2--------0-2---5p2-0-----|
|-2------0h2-------0h2------------------|
|-----------------------------------0---|


|-3-0---------3--------------------------------0----|
|-----3-0----------3b-3b-3b-3b-3b-3b-3b-3r-1--------|
|---------2-0--------------------------------2------|
|---------------------------------------------------|
|---------------------------------------------------|
|---------------------------------------------------|

|-5b-5b-5b-5-3---3------3-5b-5b-5b-5b-5b-5b-3-3--5b-5b-5b-5b-5b-5b-5b-3----|
|-------------5------5-------------------------------------------------5-5-|
|--------------------------------------------------------------------------|
|--------------------------------------------------------------------------|
|--------------------------------------------------------------------------|
|--------------------------------------------------------------------------|

|------------------------------------------|
|----------------------------------2-------|
|-----1----------------------------2-------|
|-----2----------------------------2-------|
|-----2----------------------------0-------|
|-----0------------------------------------|
Well Samson was a mighty good man. Strongest in his day

|----------------------------------------------------------------------|
|-----2----------------------------------------------------------------|
|-----2----------------------------------------------------------------|
|-----2---------------------------------------------5------------------|
|-----0---------------------------------------------5------------------|
|---------------------------------------------------3------------------|
 Then along came Delilah and clipped his wig. And it looks like you took me the same old way


|---------------------------------------|
|---------------------------------------|
|---------------------------------------| x2
|---0-2------0-2--------0-2---5p2-0-----|
|-2------0h2-------0h2------------------|
|-----------------------------------0---|


|----------------------------------------------|
|--------------------------------------2-------|
|---------1----------------------------2-------|
|---------2----------------------------2-------|
|---------2----------------------------0-------|
|---------0------------------------------------|
A ship rocks the ship on the sea. The wind blows the leaves in the tree


|--------------------------------------------------------------------------|
|----------2---------------------------------------------------------------|
|----------2---------------------------------------------------------------|
|----------2---------------------------------------------5-----------------|
|----------0---------------------------------------------5-----------------|
|--------------------------------------------------------3-----------------|
And I'm a nervous wreck and I'm all shook up, And that's what you're doin' to me right 
now. And I'm jumpin'


|---------------------------------------|
|---------------------------------------|
|---------------------------------------| x4
|---0-2------0-2--------0-2---5p2-0-----|
|-2------0h2-------0h2------------------|
|-----------------------------------0---|

|--------------|
|--------------|
|--------------|
|---0-2!-------|
|-2------------|
|--------------|
            
Submit corrections

comments powered by Disqus
↑ Back to top | Jack White Tabs for Im Shakin. Lyrics for acoustic guitar and electric guitar. Tablatures and chords are parodies/interpretations of the original songs. You may use it for private study, scholarship, research or language learning purposes only