>
 >
Man In The Mirror

Man In The Mirror Bass Tabs

Jackson Michael - Man In The Mirror chords, tabs, tablatures, lyrics

Guitar lessons | Add/correct | Request | Top 50 tabs Artists:  A B C D E F G H I J K L M N O P Q R S T U V W X Y Z 0-9

Man In The Mirror Bass Tabs – Jackson Michael

CD, Sheet music, Poster

Do you like Man In The Mirror? Share with your friends now
Bass TabsChordsTabs
Michael Jackson

G-7-9-7-----	G---4-5--7-7----	G---4-5-6-7--------------------
D-------5-7-	D-5----------0--	D-5--------0-0-0-0-0-----------
A-----------	A--------------- x2	A------------------------------
E-----------	E---------------	E------------------------------

G---------------5---------------	G-12-9-7-9----
D-5-4-2-2-2-0-------------0-2-4-	D----------2--
A-------------3---3-----3------- x2	A-------------
E-------------------------------	E-------------

G---------------------			G-7-9-7-4---2---------
D---------------------			D---------------------
A--0-2-3-1------------			A--------------0------
E---------------------			E---------------------

G---------7--------------		G---4-5-6-7---7--------
D-----------0------------		D-5---------0---0-0-0--
A---0-2-3----------------		A----------------------
E------------------------		E----------------------

G-7-9-12-	G-7-9-7-12-		G---4-5-6-7---5-7---------
D--------	D----------		D-5---------0-----0-0-0-0-
A--------	A----------		A-------------------------
E--------	E----------		E-------------------------

Get MORE JACKSON 5 TAB PEOPLE!!

feel free to modify this





Comments


Popular Jackson Michael tabs & chords
Bad 1 Bass Tabs
Billie Jean Bass Tabs
Billie Jean Chords
Earth Song Chords
Give In To Me Chords
Beat It Riff Tabs
Billie Jean Tabs
Black Or White Parody Tabs
I Just Cant Stop Loving You Tabs
Smooth Criminal Tabs


Song lyrics



↑ Back to top | Tablatures and chords are parodies/interpretations of the original songs. You may use it for private study, scholarship, research or language learning purposes only
© 2014 AZChords.com Contact us | Privacy policy | DMCA | Add/correct tabs | Request tabs | Top 50 tabs