» » »

Give In To Me Tabs (ver.2)

Artists:  A B C D E F G H I J K L M N O P Q R S T U V W X Y Z # 

Give In To Me Tabs (ver.2)

Jackson Michael
Rating:
0/5 (0 votes)

Hard to play? Try these video lessons and learn fast.
                E----------------------------------------- 	INTRO (twice)
B------------------------------------------
G------------0--------------0---------0-
D------2--4----4--2-----------0---4----
A---2-----------------0--3---------------
E-0---------------------------------------





E----------------------------------------- 	  E----------------------------------------- B------------------------------------------       B------------------------------------------     
G------------0--------------0---------0-        G------------0--------------0---------0-
D------2--4----4--2-----------0---4----        D------2--4----4--2-----------0---4----
A---2------------------0--3-------------        A---2------------------0--3-------------   
E-0---------------------------------------       E-0---------------------------------------

You always take it with a heart of stone     Cos all she does is throws it back to me


E----------------------------------------- 	  
B------------------------------------------       
G------------0--------------0---------0-        
D------2--4----4--2-----------0---4----        
A---2------------------0--3-------------        
E-0---------------------------------------       

I've spent a lifetime looking for someone


E-----------------------------	  E-------------------------
B-----------------------------	  B-------------------------
G-4--4--4--4--4--4--4--4--	  G-2--2--2----2----2-----
D-4--4--4--4--4--4--4--4--	  D-2--2--2----2----2-----
A-2--2--2--2--2--2--2--2--	  A-0--0--0----0----0-----
E-----------------------------	  E-----------3----3----3--

                Don't try to understand me ...........just simply.......


E-----------------------------	  E--------
B-----------------------------	  B--------
G-4--4--4--4--4--4--4--4--	  G-2------
D-4--4--4--4--4--4--4--4--	  D-2------
A-2--2--2--2--2--2--2--2--	  A-0------
E-----------------------------    E--------

     do the things I say.............




Listen to the song to follow the timing. This is the main tune all the way through the song. I will add the chorus later although it is very easy to follow.
            
Hard to play? Try these video lessons and learn fast. | Correct




comments powered by Disqus
↑ Back to top | Tablatures and chords are parodies/interpretations of the original songs. You may use it for private study, scholarship, research or language learning purposes only