» » »

Get On The Floor Bass tabs (ver.1)

Artists:  A B C D E F G H I J K L M N O P Q R S T U V W X Y Z # 

Get On The Floor Bass tabs (ver.1)

Jackson Michael
Rating:
0/5 (0 votes)

Hard to play? Try these video lessons and learn fast.
                Song		- Get On The Floor
Artist		- Michael Jackson
Album		- Off The Wall
Bassist		- Louis Johnson

Listen to music for actual timing.

Chorus
G----------------------------|---------------------------3|
D---------3-3-3h5------------|-------3-3-3h5---------3h5--|
A-----3h5---------3-3-2-1----|---3h5---------3-3-2-1------|
E-1h3------------------------|-3--------------------------|

Verse
G-------------------------------------|
D--5-5------------------8--8--10--10--|
A------5------------------------------|
E--------3-0-1-3-013-/-6--6--8---8----|
            
Hard to play? Try these video lessons and learn fast. | Correct




comments powered by Disqus
↑ Back to top | Tablatures and chords are parodies/interpretations of the original songs. You may use it for private study, scholarship, research or language learning purposes only